Cifras e Tablaturas
Theory of a Deadman

Theory of a Deadman

The Sun Has Set On Me

Cifras Cancelar Versão de Impressão
cifras

Theory of a Deadman - The Sun Has Set On Me

fixar na tela  
Exibindo: vídeo-aula ver clipes redimensionar
  


                                   Intro 

e|---------------------------------------------------------------------------| 
B|---------------------------------------------------------------------------| 
G|------9-10\9--10\9--9/10/12----------9-10-7--------------------------------| 
D|------x-x--x--x--x--x-x--x-----------x-x--x---x2---------------------------| 
A|-7~---7/8\-7--8\-7--7/8/-10--repeat--7/8--5--------------------------------| 
E|---------------------------------------------------------------------------| 

                                    Verse 

e|---------------------------------------------------------------------------| 
B|---------------------------------------------------------------------------| 
G|---------------------------------------------------------------------------| 
D|---------------------------------------------------------------------------| 
A|-2-3-2-2-3-2--2-2---2-3-5---repeat--2-3-0----------------------------------| 
E|-2-3-2-2-3-2--2-2---2-3-5-----------2-3-0----------------------------------| 
   * * * * * *  * *   * * *           * *  

                                     Chorus 

e|---------------------------------------------------------------------------| 
B|------5--------------------------------------------------------------------| 
G|------4-----5--------------------------------------------------------------| 
D|---2--2-----5---5----------------------------------------------------------| 
A|---2--2-----3---5----------------------------------------------------------| 
E|---2--2---------5----------------------------------------------------------| 

                                     Solo            

e|------14--14--14-----------------------------------------------------------| 
B|-14b-----------------------------------------------------------------------| 
G|-14b---14---14--14--12-14-14br-12------------------------------------------| 
D|----------------------------------14~--------------------------------------| 
A|---------------------------------------------------------------------------| 
E|---------------------------------------------------------------------------| 

e|------------------15-14-12-------------------------------------------------| 
B|----15p12----15~-----------15-14-12---------------------12b--14b-----------| 
G|-14b------x4------------------------15-14-12------------12b--14b-----------| 
D|-----------------------------------------------15-14-12--------------------| 
A|---------------------------------------------------------------------------| 
E|---------------------------------------------------------------------------| 


                                 Outro Chorus 

e|---------------------------------------------------------------------------| 
B|---------------------------------------------------------------------------| 
G|--------5---7--5--7----------------5---------------------------------------| 
D|--2-----5---7--5--7---repeat-end---5---------------------------------------| 
A|--2-----3---5--3--5----------------3---------------------------------------| 
E|--2------------------------------------------------------------------------| 

Intro 
Verse 
Chorus 
Verse 
Chorus 
Solo 
Chorus 
Outro Chorus 
************************************ 

| /   slide up 
| \   slide down 
| h   hammer-on 
| p   pull-off 
| ~   vibrato 
| +   harmonic 
| x   Mute note 
| b   Bend 
| pb  Pre-bend 
| br  Bend release 
| pbr Pre-bend release 
| brb Bend release bend 

************************************ 
  

top 5 | theory of a deadman
top rock'n roll
Outras músicas do artista letras do(a) Theory of a Deadman
Top cifras »Top artistas »
Petaxxon Comunicação Online
Cifras.com.br - Melhor e mais completo site de cifras e tablaturas do Brasil
Mais de 1 milhão de acordes de músicas cadastradas desde 2003
As informações contidas no nosso site são colaborações de seus usuários e podem conter erros, sendo assim, não nos responsabilizamos sobre nenhuma destas.
close
menos
mais
close
Cor dos acordes:

Cor da letra:

 

save
close
close
 
redimensionar