Cifras e Tablaturas
Thief Club

Thief Club

Brand New Ways

Cifras Cancelar Versão de Impressão Print

Thief Club - Brand New Ways

Tom: D#

  • 0:00 / 0:00
  			


Intro 

D#|--2--4--7--2--4--2--4--2--7--5-- 
A#|--2--4--7--2--4--2--4--2--7--5-- 
F#|--4--6--9--4--6--2--6--4--9--5-- 
C#|--4--6--9--4--6--4--6--4--9--7-- 
G#|--2--4--7--2--4--4--4--2--7--7-- 
D#|-----------------2-----------5-- 


Whoever thought that sometimes life could go your way? 

D#|--2--5-- 
A#|--2--5-- 
F#|--4--5-- 
C#|--4--7-- 
G#|--2--7-- 
D#|-----5-- 

I never thought that'd it'd go mine 

D#|--2--5-- 
A#|--2--5-- 
F#|--4--5-- 
C#|--4--7-- 
G#|--2--7-- 
D#|-----5-- 

And though the years have passed, I'm still not perfect, 

D#|--2--5-- 
A#|--2--5-- 
F#|--4--5-- 
C#|--4--7-- 
G#|--2--7-- 
D#|-----5-- 

but I wanna do this right 

D#|--2--5-- 
A#|--2--5-- 
F#|--4--5-- 
C#|--4--7-- 
G#|--2--7-- 
D#|-----5-- 

Now I've got this one big chance to prove myself, and no one thinks I can 

D#|--4--2--4--5-- 
A#|--4--2--4--5-- 
F#|--6--4--6--5-- 
C#|--6--4--6--7-- 
G#|--4--2--4--7-- 
D#|-----------5-- 

So I'll sit with my pen in hand  

D#|--4--2-- 
A#|--4--2-- 
F#|--6--4-- 
C#|--6--4-- 
G#|--4--2-- 
D#|-------- 

and write it out, before they get the chance to ask 

D#|--4--5-- 
A#|--4--5-- 
F#|--6--5-- 
C#|--6--7-- 
G#|--4--7-- 
D#|-----5-- 

"What the hell are you waiting for?" 

D#|--7-- 
A#|--7-- 
F#|--9-- 
C#|--9-- 
G#|--7-- 
D#|----- 


And honestly, I'm not sure 

D#|---5-- 
A#|---5-- 
F#|---5-- 
C#|---7-- 
G#|---7-- 
D#|---5-- 

Seems all I find are brand new ways fail 

D#|---2--4--5-- 
A#|---2--4--5-- 
F#|---4--6--5-- 
C#|---4--6--7-- 
G#|---2--4--7-- 
D#|---------5-- 


(Distortion kicks in) 

Outro 


D#|-------------------------------- 
A#|-------------------------------- 
F#|--4--6--9--4--6-----6--4--9----- 
C#|--4--6--9--4--6--4--6--4--9--7-- 
G#|--2--4--7--2--4--4--4--2--7--7-- 
D#|-----------------2-----------5-- 
    	

enviado porenviado por: deivcavalcanti
cifra enviadaCorrigida por: sem correções
logo top cifrasComente
ico música do artistaMúsicas deste artista
ico curtiuCurtiu?
ico destaqueDestaque
Petaxxon Comunicação Online

Cifras.com.br - Melhor e mais completo site de cifras e tablaturas do Brasil Mais de 1 milhão de acordes de músicas cadastradas desde 2003
As informações contidas no nosso site são colaborações de seus usuários e podem conter erros, sendo assim, não nos responsabilizamos sobre nenhuma destas.

close
menos
mais
close
Cor dos acordes:

Cor da letra:

close
Alinhar acordes a direita Alinhar acordes a esquerda Alinhar acordes em baixo Alinhar acordes no topo
close
  Mostrar todos os acordes Esconder acordes muito fáceis Esconder acordes fáceis Esconder acordes intermediários
redimensionar
glossário