Cifras e Tablaturas
Thief Club

Thief Club

Jealous

Cifras Cancelar Versão de Impressão
cifras

Thief Club - Jealous

fixar na tela  
Exibindo: vídeo-aula ver clipes redimensionar

Tom:

  
Intro 

D|-------------------------| 
A|-------------------------| 
F|-------------------------|  X 2 
C|--9/11\9------9----------| 
G|----------11-----9b11r9--| 
D|-------------------------| 


Bridge (palm muted) 

D|----------------------------------| 
A|----------------------------------| 
F|----------------------------------| 
C|----------------------------------|  X 4 
G|--9--7--11--7--9--9--7--11--9--7--| 
D|----------------------------------| 


Rest During Chorus 


Intro Again 

D|---------------------------------------------------------------| 
A|-------------------------12--12--12--12------12--12--12--12----| 
F|-------------------------9---9---9---9-------9---9---9---9-----|   X2 
C|--9/11\9------9------------------------------------------------| 
G|----------11-----9b11r9----------------------------------------| 
D|---------------------------------------------------------------| 

Ends with this 

D|----------------------| 
A|----------------------| 
F|----------------------| 
C|--9/11\9------9/11\9--| 
G|----------11----------| 
D|----------------------| 


Bridge Again (palm muted) 

D|----------------------------------| 
A|----------------------------------| 
F|----------------------------------| 
C|----------------------------------|  X 4 
G|--9--7--11--7--9--9--7--11--9--7--| 
D|----------------------------------| 


Chorus 

D|---------------------------------------------------------------------------------------------------| 
A|---------------------------7--------7--------9--------9--------7--------7--------7--------7--------| 
F|------------------------------9--------9--------9--------9--------9--------9--------9--------9-----| 
C|---------------------------------9--------9--------9--------9--------9--------9--------9--------9--| 
G|--9--11--7--7--7--7--7--7--------------------------------------------------------------------------| 
D|--7--9---5--0--5--0--5--0--------------------------------------------------------------------------| 


Solo (Use Pinch Harmonics) 

D|-------------------------------------------------------------------------------| 
A|--4--5------------------4--5--------7b9-----------------------4--5--------7b9--| 
F|--------4--6------------------4--6-------------4--6-----------------4--6-------| 
C|--------------4--6-----------------------------------4--6----------------------| 
G|--------------------4v-------------------------------------4v------------------| 
D|-------------------------------------------------------------------------------| 


Piano Part (comes in on second verse) 

D|-------------------------------------------------------------------------------| 
A|--7--------7--------9--------9-------------------------------------------------| 
F|-----9--------9--------9--------9-----------9--------9-------------------------| 
C|--------9--------9--------9--------9--7--9-----7--9-----9/11\9------9----------| 
G|----------------------------------------------------------------11-----9b11r9--| 
D|-------------------------------------------------------------------------------| 


Chorus Again 

D|---------------------------------------------------------------------------------------------------| 
A|---------------------------7--------7--------9--------9--------7--------7--------7--------7--------| 
F|------------------------------9--------9--------9--------9--------9--------9--------9--------9-----| 
C|---------------------------------9--------9--------9--------9--------9--------9--------9--------9--| 
G|--9--11--7--7--7--7--7--7--------------------------------------------------------------------------| 
D|--7--9---5--0--5--0--5--0--------------------------------------------------------------------------| 


Outro 

D|----------------------12---------12---------------------------------------------| 
A|--12--------12------------12---------12-----9--------9--------9--------9--------| 
F|------9---------9-------------9----------9-----9--------9--------9--------9-----| X2 
C|---------9---------9------------------------------9--------9--------9--------9--| 
G|--------------------------------------------------------------------------------| 
D|--------------------------------------------------------------------------------| 


Lick Played Over Outro 

D|------------------| 
A|------------------| 
F|------------------| X2 
C|--9/11\9----------| 
G|----------9/11\9--| 
D|------------------| 
  

top 5 | thief club
top rock'n roll
Outras músicas do artista letras do(a) Thief Club
Top cifras »Top artistas »
Petaxxon Comunicação Online
Cifras.com.br - Melhor e mais completo site de cifras e tablaturas do Brasil
Mais de 1 milhão de acordes de músicas cadastradas desde 2003
As informações contidas no nosso site são colaborações de seus usuários e podem conter erros, sendo assim, não nos responsabilizamos sobre nenhuma destas.
close
menos
mais
close
Cor dos acordes:

Cor da letra:

 

save
close
close
 
redimensionar