Cifras e Tablaturas
Thy Art Is Murder

Thy Art Is Murder

Defective Breed

Cifras Cancelar Versão de Impressão
cifras

Thy Art Is Murder - Defective Breed

fixar na tela  
Exibindo: vídeo-aula ver clipes redimensionar

Tom:

  
Intro Part 1 
(Guitar 1 and 2) 
e|--------------------------------|--------------------------------| 
B|--------------------------------|--------------------------------| 
G|--------------------------------|--------------------------------| 
D|--------------------------------|--------------------------------| 
A|--------------------------------|--------------------------------| 
E|--------3-3-----4-4-------------|----3-3-----4-4-------------7-7-| 
A|4-5-4-5-----4-5-----4-5-4-5-4-5-|4-5-----4-5-----4-5-4-5-4-5-----| 
  PM-----|    PM-|    PM--------------|    PM-|    PM---------| 

e|--------------------------------|--------------------------------| 
B|--------------------------------|--------------------------------| 
G|--------------------------------|--------------------------------| 
D|--------------------------------|--------------------------------|(x2) 
A|--------------------------------|--------------------------------| 
E|--------3-3-----4-4-------------|----3-3-----4-4-----4-4-----1-1-| 
A|4-5-4-5-----4-5-----4-5-4-5-4-5-|4-5-----4-5-----4-5-----4-5-----| 
  PM-----|    PM-|    PM--------------|    PM-|    PM-|    PM-| 

Intro Part 2 
(Guitar 1 and 2) 
e|--------------------------------|--------------------------------| 
B|--------------------------------|--------------------------------| 
G|--------------------------------|--------------------------------| 
D|--------------------------------|--------------------------------| 
A|--------------------------------|--------------------------------| 
E|4---2---5---------------3-3-----|4-4-----------------7-7-----7-7-| 
A|4---2---5-------4-5-4-5-----4-5-|----4-5-4-5-4-5-4-5-----4-5-----| 
  PM-----|        PM-----|    PM-|     PM-------------|    PM-| 

e|--------------------------------|--------------------------------| 
B|--------------------------------|--------------------------------| 
G|--------------------------------|--------------------------------| 
D|--------------------------------|--------------------------------|(x2) 
A|--------------------------------|--------------------------------| 
E|4---2---5---------------3-3-----|4-4-----------------4-4-----1-1-| 
A|4---2---5-------4-5-4-5-----4-5-|----4-5-4-5-4-5-4-5-----4-5-----| 
  PM-----|        PM-----|    PM-|     PM-------------|    PM-| 

e|----------------| 
B|----------------| 
G|----------------| 
D|----------------| 
A|----------------| 
E|4---1---5-------| 
A|4---1---5-------| 
  PM-----| 

Hook 
(Guitar 1) 
e|--------------------------------|--------------------------------| 
B|--------------------------------|--------------------------------| 
G|--------------------------------|--------------------------------| 
D|--------------------------------|--------------------------------| 
A|4-------------------------------|4-------------------------------| 
E|4---------------4---1---5-------|4---------------4---1---5-------| 
A|4---------------4---1---5-------|4---------------4---1---5-------| 
                  PM-----|                         PM-----| 
(Guitar 2) 
e|--------------------------------|--------------------------------| 
B|--------------------------------|--------------------------------| 
G|--------------------------------|--------------------------------| 
D|----------------6-6-6-6-6-6-6-6-|6-6-6-6-6-6-6-6-6-6-6-6-6-6-6-6-| 
A|4-------------------------------|--------------------------------| 
E|4-------------------------------|--------------------------------| 
A|4-------------------------------|--------------------------------| 

e|--------------------------------|--------------------------------| 
B|--------------------------------|--------------------------------| 
G|--------------------------------|--------------------------------| 
D|7-7-7-7-7-7-7-7-7-7-7-7-7-7-7-7-|7-7-7-7-7-7-7-7-----------------| 
A|--------------------------------|--------------------------------| 
E|--------------------------------|----------------4---1---5-------| 
A|--------------------------------|----------------4---1---5-------| 
                                                   PM-----| 

e|--------------------------------|--------------------------------| 
B|--------------------------------|--------------------------------| 
G|--------------------------------|--------------------------------| 
D|----------------6-6-6-6-6-6-6-6-|6-6-6-6-6-6-6-6-6-6-6-6-6-6-6-6-| 
A|4-------------------------------|--------------------------------| 
E|4-------------------------------|--------------------------------| 
A|4-------------------------------|--------------------------------| 

e|--------------------------------|--------------------------------| 
B|--------------------------------|--------------------------------| 
G|--------------------------------|--------------------------------| 
D|5-5-5-5-5-5-5-5-5-5-5-5-5-5-5-5-|5-5-5-5-5-5-5-5-----------------| 
A|--------------------------------|--------------------------------| 
E|--------------------------------|----------------4---1---5-------| 
A|--------------------------------|----------------4---1---5-------| 
                                                   PM-----| 

Verse Part 1 
(Guitar 1 and 2)                   1st, 3rd Ending                  2nd Ending 
e|--------------------------------|--------------------------------|--------------------------------| 
B|--------------------------------|--------------------------------|--------------------------------| 
G|--------------------------------|--------------------------------|--------------------------------| 
D|--------------------------------|--------------------------------|--------------------------------| 
A|--------------------------------|----5-5-4-4---------4-4---------|----5-5-4-4---------------------| 
E|4---------------5---4-----------|------------5-5-6-6-------------|--------------------------------| 
A|4---4-4-4-4-4-4-5---4---4-4-4-4-|4-4---------------------5-5-4-4-|4-4---------0-0-1-1-4-4-5-5-4-4-| 
      PM---------|        PM----------|                    PM-----| PM-|                    PM-----| 

  4th Ending 
e|--------------------------------| 
B|--------------------------------| 
G|--------------------------------| 
D|--------------------------------| 
A|----5-5-4-4---------------------| 
E|------------------------5---4---| 
A|4-4---------0-0-1-1-4-4-5---4---| 
                          PM-----| 

Verse Part 2 
(Guitar 1 and 2)                   1st Ending                       2nd Ending 
e|--------------------------------|--------------------------------|--------------------------------| 
B|--------------------------------|--------------------------------|--------------------------------| 
G|--------------------------------|--------------------------------|--------------------------------| 
D|--------------------------------|--------------------------------|--------------------------------|(x2) 
A|--------------------------------|--------------------------------|--------------------------------| 
E|--------------------------------|--------------------------------|----------------5-5-5-5-5-5-5-5-| 
A|5-5-5-5-5-5-5-5-5-5-5-5-4-4-4-4-|1-1-1-1-1-1-1-1-1-1-1-1-4-4-4-4-|1-1-1-1-1-1-1-1-----------------| 

Verse Part 3 
(Guitar 1)                         1st Ending                       2nd Ending 
e|--------------------------------|--------------------------------|--------------------------------| 
B|--------------------------------|--------------------------------|--------------------------------| 
G|--------------------------------|--------------------------------|--------------------------------| 
D|--------------------------------|--------------------------------|--------------------------------| 
A|--------------------------------|----5-5-4-4---------4-4---------|----5-5-4-4---------------------| 
E|4---------------5---4-----------|------------5-5-6-6-------------|------------------------5---4---| 
A|4---4-4-4-4-4-4-5---4---4-4-4-4-|4-4---------------------5-5-4-4-|4-4---------0-0-1-1-4-4-5---4---| 
      PM---------|        PM----------|                    PM-----| PM-|                    PM-----| 

(Guitar 2) 
e|--------------------------------|--------------------------------| 
B|--------------------------------|--------------------------------| 
G|--------------------------------|--------------------------------| 
D|6-6-6-6-6-6-6-6-6-6-6-6-6-6-6-6-|7-7-7-7-7-7-7-7-7-7-7-7-7-7-7-7-| 
A|--------------------------------|--------------------------------| 
E|4-4-4-4-4-4-4-4-4-4-4-4-4-4-4-4-|5-5-5-5-5-5-5-5-5-5-5-5-5-5-5-5-| 
A|--------------------------------|--------------------------------| 

e|--------------------------------|--------------------------------| 
B|--------------------------------|--------------------------------| 
G|--------------------------------|--------------------------------| 
D|6-6-6-6-6-6-6-6-6-6-6-6-6-6-6-6-|5-5-5-5-5-5-5-5-5-5-5-5-5-5-5-5-|(x2) 
A|--------------------------------|--------------------------------| 
E|4-4-4-4-4-4-4-4-4-4-4-4-4-4-4-4-|3-3-3-3-3-3-3-3-3-3-3-3-3-3-3-3-| 
A|--------------------------------|--------------------------------| 


Break 1 
(Guitar 1) 
e|--------------------------------| 
B|--------------------------------| 
G|--------------------------------| 
D|--------------------------------| 
A|--------------------------------| 
E|0-0-0-------------------0-0-0---| 
A|0-0-0-------------------0-0-0---| 
  PM---|                  PM---| 

(Guitar 2) 
e|--------------------------------| 
B|--------------------------------| 
G|--------------------------------| 
D|--------------------------------| 
A|--------------------------------| 
E|------------0-0-0---------------| 
A|------------0-0-0---------------| 
              PM---| 

Breakdown 1 
(Guitar 1 and 2) 
e|------------------------------------|--------------------------------------------------| 
B|------------------------------------|--------------------------------------------------| 
G|------------------------------------|--------------------------------------------------| 
D|------------------------------------|--------------------------------------------------| 
A|------------------------------------|--------------------------------------------------| 
E|0-0-0-----0-0-0-----0-0-0-----------|0-0-0---0-0-0--------0-0-0-----0-0-0-----0-0-0----| 
A|0-0-0-----0-0-0-----0-0-0-----------|0-0-0---0-0-0--------0-0-0-----0-0-0-----0-0-0----| 
  PM---|    PM---|    PM---|           PM---|  PM---|       PM---|    PM---|    PM---| 

e|------------------------------------|--------------------------------------------------| 
B|------------------------------------|--------------------------------------------------| 
G|------------------------------------|--------------------------------------------------| 
D|------------------------------------|--------------------------------------------------|(x2) 
A|------------------------------------|--------------------------------------------------| 
E|0-0-0-----0-0-0-----0-0-0-------0---|0-0-0---0-0-0-----0---0-0-0-----0-0-0-----0-0-0---| 
A|0-0-0-----0-0-0-----0-0-0-------0---|0-0-0---0-0-0-----0---0-0-0-----0-0-0-----0-0-0---| 
  PM---|    PM---|    PM---|      PM   PM---|  PM---|    PM  PM---|    PM---|    PM---| 

Bridge 
(Guitar 1) 
e|--------------------------------|--------------------------------| 
B|--------------------------------|--------------------------------| 
G|--------------------------------|--------------------------------| 
D|--------------------------------|--------------------------------|(x2) 
A|--------------------------------|--------------------------------| 
E|5---4-------5---4-------5---4---|----5---4---5-------------------| 
A|5---4-------5---4-------5---4---|----5---4---5-------------------| 
  PM-----|    PM-----|    PM-----|     PM---------| 

(Guitar 2) 
e|--------------------------------|--------------------------------| 
B|--------------------------------|--------------------------------| 
G|--------------------------------|--------------------------------| 
D|--------------------------------|--------------------------------|(x2) 
A|--------------------------------|--------------------------------| 
E|5---4---3-3-5---4---4-4-5---4---|3-3-5---4---5---4h7-----4h7-----| 
A|5---4-------5---4-------5---4---|----5---4---5-------5h8-----5h8-| 
  PM-----|    PM-----|    PM-----|     PM---------|    PM-|    PM-| 

Breakdown 2 
(Guitar 1 and 2) 
e|--------------------------------|--------------------------------| 
B|--------------------------------|--------------------------------| 
G|--------------------------------|--------------------------------| 
D|--------------------------------|--------------------------------| 
A|--------------------------------|--------------------------------| 
E|--------------------------------|----0-----0-----0-----0-----0---| 
A|2---1-------2---1-------2---1---|----1-----1-----1-----1-----1---| 
                                       PM-------------------------| 

e|--------------------------------|--------------------------------| 
B|--------------------------------|--------------------------------| 
G|--------------------------------|--------------------------------| 
D|--------------------------------|--------------------------------|(x2) 
A|--------------------------------|--------------------------------| 
E|--------------------------------|----0-----0-----0---0---0---0---| 
A|2---1-------2---1-------2---1---|----1-----1-----1---1---1---1---| 
                                       PM-------------------------| 

Break 2 
(Guitar 1 and 2) 
e|--------------------------------|----------------| 
B|--------------------------------|----------------| 
G|--------------------------------|----------------| 
D|--------------------------------|----------------| 
A|5-------------------------------|4-------4-------| 
E|5-------------------------------|4-------4-------| 
A|5-------------------------------|4-------4-------| 


Build-Up 
(Guitar 1) 
e|--------------------------------|--------------------------------| 
B|--------------------------------|--------------------------------| 
G|--------------------------------|--------------------------------| 
D|--------------------------------|--------------------------------|(x2) 
A|0-------------------------------|--------------------------------| 
E|0-------------------------------|--------------------------------| 
A|0-------------------------------|--------------------------------| 

(Guitar 2) 
e|--------------------------------|--------------------------------| 
B|--------13----------------------|13----------------------13------| 
G|----------------9---------------|--------9-------------------9---| 
D|--------------------------------|--------------------------------| 
A|12----------------------12------|----------------12--------------| 
E|--------------------------------|--------------------------------| 
A|--------------------------------|--------------------------------| 
  Let Ring 
                                   1st Ending                       2nd Ending 
e|--------------------------------|--------------------------------|--------------------------------| 
B|--------13----------------------|--------13----------------------|--------13----------------------| 
G|----------------8---------------|----------------9---------------|--------------------------------| 
D|10----------------------10------|--------------------------------|--------------------------------| 
A|--------------------------------|11----------------------11------|11------------------------------| 
E|--------------------------------|--------------------------------|--------------------------------| 
A|--------------------------------|--------------------------------|--------------------------------| 

Breakdown 3 
(Guitar 1) 
e|--------------------------------|----------------------------------------| 
B|--------------------------------|----------------------------------------| 
G|--------------------------------|----------------------------------------| 
D|--------------------------------|----------------------------------------| 
A|--------------------------------|----------------------------------------| 
E|0-------0---0-------0---0-------|0---0-------0---0-------0-0-0-0---------| 
A|0-------0---0-------0---0-------|0---0-------0---0-------0-0-0-0---------| 
  PM--------------------------------------------------------------| 

                                                               N.H. 
e|----------------------------------------|--------------------5-----------| 
B|----------------------------------------|----------------------5---------| 
G|----------------------------------------|------------------------5-------| 
D|----------------------------------------|--------------------------5-----|(x4) 
A|----------------------------------------|--------------------------------| 
E|0-0-0-0---------0-------0---0-------0---|0-------0---0---------------0---| 
A|0-0-0-0---------0-------0---0-------0---|0-------0---0---------------0---| 
  PM-----|        PM------------------------------------------|        PM-| 

(Guitar 2) 
e|--------------------------------|--------------------------------| 
B|--------13----------------------|13----------------------13------| 
G|----------------9---------------|--------9-------------------9---| 
D|--------------------------------|--------------------------------| 
A|12----------------------12------|----------------12--------------| 
E|--------------------------------|--------------------------------| 
A|--------------------------------|--------------------------------| 
  Let Ring 

e|--------------------------------|--------------------------------| 
B|--------13----------------------|--------13----------------------| 
G|----------------8---------------|----------------9---------------| 
D|10----------------------10------|--------------------------------| 
A|--------------------------------|11----------------------11------| 
E|--------------------------------|--------------------------------| 
A|--------------------------------|--------------------------------| 


************************************ 

| h   Hammer-on 
| PM  Palm mute 

************************************ 
  

top 5 | thy art is murder
top rock'n roll
Outras músicas do artista letras do(a) Thy Art Is Murder
Top cifras »Top artistas »
Petaxxon Comunicação Online
Cifras.com.br - Melhor e mais completo site de cifras e tablaturas do Brasil
Mais de 1 milhão de acordes de músicas cadastradas desde 2003
As informações contidas no nosso site são colaborações de seus usuários e podem conter erros, sendo assim, não nos responsabilizamos sobre nenhuma destas.
close
menos
mais
close
Cor dos acordes:

Cor da letra:

 

save
close
close
 
redimensionar