Cifras e Tablaturas
Tiago Iorc

Tiago Iorc

Nothing But a Song

Cifras Cancelar Versão de Impressão
cifras

Tiago Iorc - Nothing But a Song

fixar na tela  
Exibindo: vídeo-aula ver clipes redimensionar
  
Verse 

  D7M(9)                                    F#m7(9)  F#m7(11) F#m7(9) F#m7(11) 
E|---------x-----x-------------------------------x-----x-------------x----------------| 
B|-------5-x---5-x-------------------------------x---0-x-----0---0---x----------------| 
G|---------x-6---x-----------------------------1-x-2---x-1h2-2-----2-x----------------| (4x) 
D|---------x-----x-----------------------------2-x-2---x-2---2-------x----------------| 
A|-0-4/5---x-5---x-------------------------------x-----x-----x-------x----------------| 
E|---------x-----x---------------------------0-2-x-2---x-2---x-2-----x----------------| 


Pre-Chorus 

E|-------x-------x-----x-------x------------| 
B|-----3-x-----3-x---5-x-----5-x------------| 
G|-----2-x-----2-x---4-x-----4-x------------| 
D|-----4-x---4---x---6-x---6---x------------| 
A|-0-2---x-2-----x-2-4-x-4-----x------------| 
E|-------x-------x-----x-------x------------| 


E|-------x-----x-----x-----7-x--------------| 
B|-----3-x-5-5-x-7-7-x-----7-x--------------| 
G|-----2-x-4-4-x-6-6-x---7---x--------------| 
D|-----4-x-6-6-x-7-7-x-------x--------------| 
A|-0-2---x-4---x-5---x-7-----x--------------| 
E|-------x-----x-----x-------x--------------| 


Chorus 

E|-----x------x-----x-------x---------------| 
B|---5-x----5-x---5-x-----5-x---------------| 
G|---6-x----6-x---7-x-----7-x---------------| 
D|---6-x--6---x---7-x---7---x---------------| 
A|-----x------x-----x-------x---------------| 
E|-0-5-x-5----x-0-7-x-7-----x---------------| 


E|-----x-----x-------------x----------------| 
B|-----x---0-x-----0---0---x----------------| 
G|---1-x-2---x-1h2-2-----2-x----------------|  (2x) 
D|---2-x-2---x-2---2-------x----------------| 
A|-----x-----x-----x-------x----------------| 
E|-0-2-x-2---x-2---x-2-----x----------------| 
 
  

cifra enviadasem correções
enviado porenviada por:ang-letra
top 5 | tiago iorc
top pop music
Outras músicas do artista letras do(a) Tiago Iorc
Top cifras »Top artistas »
Petaxxon Comunicação Online
Cifras.com.br - Melhor e mais completo site de cifras e tablaturas do Brasil
Mais de 1 milhão de acordes de músicas cadastradas desde 2003
As informações contidas no nosso site são colaborações de seus usuários e podem conter erros, sendo assim, não nos responsabilizamos sobre nenhuma destas.
close
menos
mais
close
Cor dos acordes:

Cor da letra:

 

save
close
close
 
redimensionar