Cifras e Tablaturas
Tigers Jaw

Tigers Jaw

Escape Plan

Cifras Cancelar Versão de Impressão

Tigers Jaw - Escape Plan

Tom: Am

  			
Intro - Repeats 2x 

       Am7       Am7       FM7/C     FM7/C 
e|---0-0-0-0---0-0-0-0---0-0-0-0---0-0-0-0---| 
B|---1-1-1-1---1-1-1-1---1-1-1-1---1-1-1-1---| 
G|---0-0-0-0---0-0-0-0---2-2-2-2---2-2-2-2---| 
D|---2-2-2-2---2-2-2-2---3-3-3-3---3-3-3-3---| 
A|---0-0-0-0---0-0-0-0---3-3-3-3---3-3-3-3---| 
E|-------------------------------------------| 

1st Verse - Repeats until the Chorus 
"Coming down slowly..." 

       Am7       Am7       FM7/C     FM7/C 
e|---0-0-0-0---0-0-0-0---0-0-0-0---0-0-0-0---| 
B|---1-1-1-1---1-1-1-1---1-1-1-1---1-1-1-1---| 
G|---0-0-0-0---0-0-0-0---2-2-2-2---2-2-2-2---| 
D|---2-2-2-2---2-2-2-2---3-3-3-3---3-3-3-3---| 
A|---0-0-0-0---0-0-0-0---3-3-3-3---3-3-3-3---| 
E|-------------------------------------------| 


Chorus - Repeats 4x 
"I put it all on the line..." 

       Am7       FM7/C     C         Gadd4 
e|---0-0-0-0---0-0-0-0---0-0-0-0-------------| 
B|---1-1-1-1---1-1-1-1---1-1-1-1---1-1-1-1---| 
G|---0-0-0-0---2-2-2-2---2-2-2-2---0-0-0-0---| 
D|---2-2-2-2---3-3-3-3---0-0-0-0---0-0-0-0---| 
A|---0-0-0-0---3-3-3-3---3-3-3-3---2-2-2-2---| 
E|---------------------------------3-3-3-3---| 


2nd Verse - Repeats until bridge 
"Coming down slowly..." 

     Am7       Am7       FM7/C     FM7/C 
e|---0-0-0-0---0-0-0-0---0-0-0-0---0-0-0-0---| 
B|---1-1-1-1---1-1-1-1---1-1-1-1---1-1-1-1---| 
G|---0-0-0-0---0-0-0-0---2-2-2-2---2-2-2-2---| 
D|---2-2-2-2---2-2-2-2---3-3-3-3---3-3-3-3---| 
A|---0-0-0-0---0-0-0-0---3-3-3-3---3-3-3-3---| 
E|-------------------------------------------| 


Bridge - Repeats 6x 
"Under the surface..." 

       Am7       C         Gadd4     FM7/C  
e|---0-0-0-0---0-0-0-0-------------0-0-0-0---| 
B|---1-1-1-1---1-1-1-1---1-1-1-1---1-1-1-1---| 
G|---0-0-0-0---2-2-2-2---0-0-0-0---2-2-2-2---| 
D|---2-2-2-2---0-0-0-0---0-0-0-0---3-3-3-3---| 
A|---0-0-0-0---3-3-3-3---2-2-2-2---3-3-3-3---| 
E|-----------------------3-3-3-3-------------| 


Final Chorus - Repeats 8x 
"I put it all on the line..." 

       Am7       FM7/C     C         Gadd4 
e|---0-0-0-0---0-0-0-0---0-0-0-0-------------| 
B|---1-1-1-1---1-1-1-1---1-1-1-1---1-1-1-1---| 
G|---0-0-0-0---2-2-2-2---2-2-2-2---0-0-0-0---| 
D|---2-2-2-2---3-3-3-3---0-0-0-0---0-0-0-0---| 
A|---0-0-0-0---3-3-3-3---3-3-3-3---2-2-2-2---| 
E|---------------------------------3-3-3-3---| 


Outro - Repeats 4x 


       Am7       FM7/C     C         Gadd4 
e|---0-0-0-0---0-0-0-0---0-0-0-0-------------| 
B|---1-1-1-1---1-1-1-1---1-1-1-1---1-1-1-1---| 
G|---0-0-0-0---2-2-2-2---2-2-2-2---0-0-0-0---| 
D|---2-2-2-2---3-3-3-3---0-0-0-0---0-0-0-0---| 
A|---0-0-0-0---3-3-3-3---3-3-3-3---2-2-2-2---| 
E|---------------------------------3-3-3-3---| 

End on Am7 


-------- 
Guitar 2 
-------- 


Guitar 2 does not play during intro. 
Guitar 2 does not play on first half of this verse. 


1st Verse - Guitar 2 - Repeat 16x 
"Let me down slowly..." 

e|------3-----3---------------| 
B|---5-----5--------5-----5---| 
G|---------------5-----5------| 
D|----------------------------| 
A|----------------------------| 
E|----------------------------| 


Chorus - Guitar 2 - Repeats 4x 
"I put it all on the line.." 

       Am7           FM7/C             C              G 
e|--------------|--------------|--------------|--------------| 
B|--------1-----|--------1-----|--------1-----|--------3-----| 
G|-----------0--|-----------2--|-----------0--|-----------0--| 
D|-----2--------|-----3--------|-----2--------|--------------| 
A|--0-----------|--3-----------|--3-----------|-----2--------| 
E|--------------|--------------|--------------|--3-----------| 


2nd Verse  - Guitar 2 - Part 1 


First, repeat this 4x 
"Coming down slowly...." 

    Am7         Am7            FM7/C       FM7/C  
e|-----------0--------------|-----------0--------------| 
B|-----1-----------1-----1--|-----1-----------1-----1--| 
G|--------------------------|--------------------------| 
D|--2-----2-----2-----2-----|--3-----3-----3-----3-----| 
A|--------------------------|--------------------------| 
E|--------------------------|--------------------------| 

2nd Verse  - Guitar 2 - Part 2 
"I know something's wrong..." 
    
e|------3-----3---------------| 
B|---5-----5--------5-----3---| 
G|---------------5-----5------| 
D|----------------------------| 
A|----------------------------| 
E|----------------------------| 

Bridge - Guitar 2 
"Under the surface..." 

       Am7       C         Gadd4     FM7/C  
e|---0-0-0-0---0-0-0-0-------------0-0-0-0---| 
B|---1-1-1-1---1-1-1-1---1-1-1-1---1-1-1-1---| 
G|---0-0-0-0---2-2-2-2---0-0-0-0---2-2-2-2---| 
D|---2-2-2-2---0-0-0-0---0-0-0-0---3-3-3-3---| 
A|---0-0-0-0---3-3-3-3---2-2-2-2---3-3-3-3---| 
E|-----------------------3-3-3-3-------------| 


Final Chorus - Guitar 2 - Repeats 4x 
"I put it all on the line..." 

       Am7           FM7/C             C              G 
e|--------------|--------------|--------------|--------------| 
B|--------1-----|--------1-----|--------1-----|--------3-----| 
G|-----------0--|-----------2--|-----------0--|-----------0--| 
D|-----2--------|-----3--------|-----2--------|--------------| 
A|--0-----------|--3-----------|--3-----------|-----2--------| 
E|--------------|--------------|--------------|--3-----------| 


Outro - Guitar 2 - Repeat 8x 


e|-------------------------| 
B|---1-/-5-5-5b6b5-\-3-3---| 
G|-------------------------| 
D|-------------------------| 
A|-------------------------| 
E|-------------------------| 

End on: 

e|-------------| 
B|---1-/-5~~~--| 
G|-------------| 
D|-------------| 
A|-------------| 
E|-------------| 


************************************ 

| b Bend 
| / Slide up 
| \ Slide down 
| ~ Vibrato 

************************************ 
    	
fixar
fixar inscrever-se

enviado porenviado por: deivcavalcanti
cifra enviadaCorrigida por: sem correções
logo top cifrasComente
ico música do artistaMúsicas deste artista
ico curtiuCurtiu?
ico destaqueDestaque
Petaxxon Comunicação Online

Cifras.com.br - Melhor e mais completo site de cifras e tablaturas do Brasil Mais de 1 milhão de acordes de músicas cadastradas desde 2003
As informações contidas no nosso site são colaborações de seus usuários e podem conter erros, sendo assim, não nos responsabilizamos sobre nenhuma destas.

close
menos
mais
close
Cor dos acordes:

Cor da letra:

close
Alinhar acordes a direita Alinhar acordes a esquerda Alinhar acordes em baixo Alinhar acordes no topo
close
  Mostrar todos os acordes Esconder acordes muito fáceis Esconder acordes fáceis Esconder acordes intermediários
redimensionar
glossário