Cifras e Tablaturas
Tigers Jaw

Tigers Jaw

Guardian

Cifras Cancelar Versão de Impressão
cifras

Tigers Jaw - Guardian

fixar na tela  
Exibindo: vídeo-aula ver clipes redimensionar

Tom:

  
E|---------------------------------------------------------------| 
B|---------------------------------------------------------------| 
G|----7----6----11----4------------------------------------------|  x6 
D|----0----0----0-----0------------------------------------------|  x2 (the last two times played, prior 
A|----x----x----x-----x------------------------------------------|      to the Chorus, palm mute the 2nd  
E|----7----5----10----3------------------------------------------|      and 4th chords) 


Chorus 

E|---------------------------------------------------------------| 
B|---------------------------------------------------------------| 
G|----4----7----6------------------------------------------------|  x4 
D|----0----0----0------------------------------------------------| 
A|----x----x----x------------------------------------------------| 
E|----3----7----5------------------------------------------------| 


Verse 

E|---------------------------------------------------------------| 
B|---------------------------------------------------------------| 
G|----7----6----11----4------------------------------------------|  x6 
D|----0----0----0-----0------------------------------------------|  x2 (the last two times played, prior 
A|----x----x----x-----x------------------------------------------|      to the Chorus, palm mute the 2nd  
E|----7----5----10----3------------------------------------------|      and 4th chords) 


Chorus 

E|---------------------------------------------------------------| 
B|---------------------------------------------------------------| 
G|----4----7----6------------------------------------------------|  x4 
D|----0----0----0------------------------------------------------| 
A|----x----x----x------------------------------------------------| 
E|----3----7----5------------------------------------------------| 


Instrumental/Breakdown (lol) 

E|---------------------------------------------------------------|  -| 
B|---------------------------------------------------------------|   |  
G|--4--|----7--6--2--4/7--x--/7--6--x--2--4--x------------------|   | 
D|--0--|----0--0--0--0/0--x--/0--0--x--0--0--x------------------|   | 
A|--x--|----x--x--x--x/x--x--/x--x--x--x--x--x------------------|   | 
E|--3--|----7--5--1--3/7--x--/7--5--x--1--3--x------------------|   | 
                                                                     | x2 
E|---------------------------------------------------------------|   | 
B|---------------------------------------------------------------|   | 
G|--------/7--6--2--4/7--x--11--x--6--x----|--6-----------------|   | 
D|--------/0--0--0--0/0--x--0---x--0--x----|--0-----------------|   | 
A|--------/x--x--x--x/x--x--x---x--x--x----|--x-----------------|   | 
E|--------/7--5--1--3/7--x--10--x--5--x----|--5-----------------|  -| 


Chorus 

E|---------------------------------------------------------------| 
B|---------------------------------------------------------------| 
G|----4----7----6------------------------------------------------|  x4 
D|----0----0----0------------------------------------------------| 
A|----x----x----x------------------------------------------------| 
E|----3----7----5------------------------------------------------| 


Outro 

E|---------------------------------------------------------------|   
B|---------------------------------------------------------------|     
G|--4--|----7--6--2--4/7~--ring out------------------------------|    
D|--0--|----0--0--0--0/0~----------------------------------------|    
A|--x--|----x--x--x--x/x~----------------------------------------|    
E|--3--|----7--5--1--3/7~----------------------------------------| 
  

top 5 | tigers jaw
top rock'n roll
Outras músicas do artista letras do(a) Tigers Jaw
Top cifras »Top artistas »
Petaxxon Comunicação Online
Cifras.com.br - Melhor e mais completo site de cifras e tablaturas do Brasil
Mais de 1 milhão de acordes de músicas cadastradas desde 2003
As informações contidas no nosso site são colaborações de seus usuários e podem conter erros, sendo assim, não nos responsabilizamos sobre nenhuma destas.
close
menos
mais
close
Cor dos acordes:

Cor da letra:

 

save
close
close
 
redimensionar