Cifras e Tablaturas
Tigers Jaw

Tigers Jaw

Soft Spoken

Cifras Cancelar Versão de Impressão
cifras

Tigers Jaw - Soft Spoken

fixar na tela  
Exibindo: vídeo-aula ver clipes redimensionar
  
Intro 

e|--------------------0---0-----------------|   
B|--------------------0---1p0---------------|   
G|--0---2--0---4------0---0-----------------|   
D|--2---2--2---2---2--2---2-----2-----------| x4 
A|--2---2--2---2---3--3---3-----3-----------|   
E|------------------------------------------| 

 Riff 
e|--------------------------|   
B|--------------------------|   
G|----------7--4--7---------|   
D|---0h2--------------------| 
A|--------------------------|   
E|--------------------------| 
(often played in the background throughout the song) 


verse 1 

e|--0---0--0--------------|   
B|--0---3--0---1----------|   
G|--0---0--0---0----------|   
D|--2---2--2---2----------| x4 
A|--2---2--2---3----------|   
E|------------------------| 
    It takes one to love ya... 

It's emotional garbage... 
Em – DGC x2 


verse 2 

e|--0---0--0--------------|   
B|--0---3--0---1----------|   
G|--0---0--0---0----------|   
D|--2---2--2---2----------| x4 
A|--2---2--2---3----------|   
E|------------------------| 
  It takes one to love ya... 

I've heard it before... 
Em - D - G - C x2 


Chorus 

e|--------------------0---0-----------------|   
B|--------------------0---1p0---------------|   
G|--0---2--0---4------0---0-----------------|  x4 
D|--2---2--2---2---2--2---2-----2-----------| 
A|--2---2--2---2---3--3---3-----3-----------|   
E|------------------------------------------| 
  It’s how I wanted to be, soft spoken... 

e|------------------------------|   
B|-----------------1------------|   
G|--0---2--0---4---0------------|  x4 
D|--2---2--2---2---2------------| 
A|--2---2--2---2---3------------|   
E|------------------------------| 
  It's how I wanted to be... 

e|--0---0--0--------------|   
B|--0---3--0---1----------|   
G|--0---0--0---0----------|   
D|--2---2--2---2----------| (repeat until the end) 
A|--2---2--2---3----------|   
E|------------------------| 
 It takes one to love you 
 It takes one to love you 
 Softspoken 


*********************************** 
| h   Hammer-on 
| p   Pull-off 
*********************************** 
  

cifra enviadasem correções
enviado porenviada por:terr_schmitz
top 5 | tigers jaw
top rock'n roll
Outras músicas do artista letras do(a) Tigers Jaw
1.
Hum
Top cifras »Top artistas »
Petaxxon Comunicação Online
Cifras.com.br - Melhor e mais completo site de cifras e tablaturas do Brasil
Mais de 1 milhão de acordes de músicas cadastradas desde 2003
As informações contidas no nosso site são colaborações de seus usuários e podem conter erros, sendo assim, não nos responsabilizamos sobre nenhuma destas.
close
menos
mais
close
Cor dos acordes:

Cor da letra:

 

save
close
close
 
redimensionar