Cifras e Tablaturas
Tim Rogers

Tim Rogers

Where The Wind Don't Blow

Cifras Cancelar Versão de Impressão Print

Tim Rogers - Where The Wind Don't Blow

Tom: G

  • 0:00 / 0:00
  			TUNING 
====== 
 
Guitars are tuned down a tone 
All chords labelled as if in standard tuning 
 
 
CHORDS 
====== 
 
 
    G  D  Gmaj7  Am7  Em7  E7  Bm  A7sus4 
                                                
d|--3--2----2-----3----2---0---2------0---- 
A|--3--3----3-----1----3---0---3------3---- 
F|--0--2----0-----0----0---1---4------0---- 
C|--0--0----0-----2----0---0---4------2---- 
G|--x-------x-----0----2---2---2------0---- 
D|--3-------3----------0---0--------------- 
 
 
=============================================================== 
 
 
PATTERN ONE 
=========== 
 
d|--3-3-2-2-- 
A|--3-3-3-3-- 
F|--0-0-0-0-- 
C|--0-0-0-0-- 
G|--x-x-x-x-- 
D|--3-3-3-3-- 
 
/1. Play PATTERN ONE whenever a G  chord is marked 
 
 
=============================================================== 
 
 
INTRO 
===== 
 
 
d|-----------------------------------------------------------------3-- 
A|--10-s-12---10---7-s-10---10-s-12~----10-s-12--10---7-s-10---7~--3-- 
F|--9--s-11---9----7-s-9----9--s-11~----9--s-11--9----7-s-9----7~--0-- 
C|-----------------------------------------------------------------0-- 
G|-----------------------------------------------------------------x-- 
D|-----------------------------------------------------------------3-- 
 
                                                                  Down 
                                                                 Stroke 
 
then: 
 
         D                           G       D                    G 
 
d|----------------------------------------------------------------- 
A|--10-s-12---10---7-s-10---10-s-12~----10-s-12--10---7-s-10---7~-- 
F|--9--s-11---9----7-s-9----9--s-11~----9--s-11--9----7-s-9----7~-- 
C|----------------------------------------------------------------- 
G|----------------------------------------------------------------- 
D|----------------------------------------------------------------- 
 
 
VERSE ONE 
========= 
 
  G                      Gmaj7 
I need a place where the wind don't blow 
G               Gmaj7           D 
Somewhere I can rest these long bones 
  G                     Gmaj7 
I need a place where my head can rise above the 
G                 Gmaj7            D 
Damage now that's scratching at my eyes 
 
 
PRE-CHORUS 
========== 
 
       Am7 
Do you know a little patch? 
     Em7 
Yeah some little blade o' grass 
      E7 
Where I can let my head settle on 
Gmaj7 
Grass, mud or metal 
 
 
CHORUS 
====== 
 
         D          Gmaj7            D 
If you believe that a dead thing can grow 
               Gmaj7             Bm 
Then wrap your arms around these bones 
                  E7 
As if you knew me anyway 
         D          Gmaj7            D 
If you believe that a dead thing can rise 
               Gmaj7            Bm 
Then wrap your arms around this guy 
                  E7 
As if you knew me anyway 
   A7sus4 
Oh anyway 
 
 
LINK 
==== 
 
         D                           G       D                    G 
 
d|----------------------------------------------------------------- 
A|--10-s-12---10---7-s-10---10-s-12~----10-s-12--10---7-s-10---7~-- 
F|--9--s-11---9----7-s-9----9--s-11~----9--s-11--9----7-s-9----7~-- 
C|----------------------------------------------------------------- 
G|----------------------------------------------------------------- 
D|----------------------------------------------------------------- 
 
 
VERSE TWO 
========= 
 
I'm so damn angry I'm a magnifying glass 
Hold me up and I'll burn some miles o' grass 
So fill on up my glass with angel tears and let some 
Lonesome music fill my ears 
 
 
PRE-CHORUS 
========== 
 
Do you know a little patch? 
Yeah some little blade o' grass 
Where I can let my head settle on 
Grass, mud or metal 
 
 
CHORUS 
====== 
 
If you believe that a dead thing can grow 
Then wrap your arms around these bones 
As if you knew me anyway 
If you believe that a dead thing can rise 
Then wrap your arms around this guy 
As if you knew me anyway 
Oh anyway 
 
 
LINK 
==== 
 
         D                           G       D                    G 
 
d|----------------------------------------------------------------- 
A|--10-s-12---10---7-s-10---10-s-12~----10-s-12--10---7-s-10---7~-- 
F|--9--s-11---9----7-s-9----9--s-11~----9--s-11--9----7-s-9----7~-- 
C|----------------------------------------------------------------- 
G|----------------------------------------------------------------- 
D|----------------------------------------------------------------- 
 
 
BRIDGE 
====== 
 
G  
I aint found a place to lie but i'm dancing with you in slow time 
                               D 
It's all here behind my closed eyes 
 
 
OUTRO 
===== 
 
G  / G  / G  / G  
Oooo... 
 
D / D 
Oooo... 
 
G  / G  / G  / G  
Oooo... 
 
End on D 
 

    	

enviado porenviado por: anônimo
cifra enviadaCorrigida por: sem correções
logo top cifrasComente
ico música do artistaMúsicas deste artista
ico curtiuCurtiu?
ico destaqueDestaque
Petaxxon Comunicação Online

Cifras.com.br - Melhor e mais completo site de cifras e tablaturas do Brasil Mais de 1 milhão de acordes de músicas cadastradas desde 2003
As informações contidas no nosso site são colaborações de seus usuários e podem conter erros, sendo assim, não nos responsabilizamos sobre nenhuma destas.

close
menos
mais
close
Cor dos acordes:

Cor da letra:

close
Alinhar acordes a direita Alinhar acordes a esquerda Alinhar acordes em baixo Alinhar acordes no topo
close
  Mostrar todos os acordes Esconder acordes muito fáceis Esconder acordes fáceis Esconder acordes intermediários
redimensionar
glossário