Cifras e Tablaturas
Title Fight

Title Fight

Dreamcatchers

Cifras Cancelar Versão de Impressão
cifras

Title Fight - Dreamcatchers

fixar na tela  
Exibindo: vídeo-aula ver clipes redimensionar

Tom:

  
Intro 

e|---------------------|---------------------| 
b|-----b---------------|---------------------| 
g|--10-10--10--10--10--|---10-10--10--10--10-| 
d|--11-11--11--11--11--|---11-11--11--11--11-| 
a|--9--9---9---9---9---|---9--9---9---9---9--| 
e|---------------------|---11-11--11--11--11-| x2 

verse 

e|------------------------------|-------------------------------|  
b|------------------------------|-------------------------------| 
g|------------------------------|-------------------------------| 
d|-4-4--4--4--4--6-6--6--3-3--3-|-4-4--4--4--4--6-8--8--3-3--3--| 
a|-4-4--4--4--4--6-6--6--3-3--3-|-4-4--4--4--4--6-8--8--3-3--3--| 
e|-2-2--2--2--2--4-4--4--1-1--1-|-2-2--2--4--2--4-6--8--1-1--1--| 

e|------------------------------|-------------------------------| 
b|------------------------------|-------------------------------| 
g|------------------------------|------6--6--6----------8-8--8--|     
d|-4-4--4--4--4--6-6--6--3-3--3-|-6-8--6--6--6--4-4--4--8-8--8--| 
a|-4-4--4--4--4--6-6--6--3-3--3-|-6-8--4--4--4--4-4--4--6-6--6--| 
e|-2-2--2--2--2--4-4--4--1-1--1-|-4-6-----------2-2--2----------| x2 

Chorus 

e|-----------------------------|---------------------------| 
b|-----------------------------|---------------------------| 
g|-----------------------------|-8-8--8-8-8--8-8-8--8-8-8--| 
d|-4-4--4--4--4--6-6--6--6--6--|-8-8--8-8-8--8-8-8--8-8-8--| 
a|-4-4--4--4--4--6-6--6--6--6--|-6-6--6-6-6--6-6-6--6-6-6--| 
e|-2-2--2--2--2--4-4--4--4--4--|---------------------------| 

intro 

e|---------------------|---------------------| 
b|--b------------------|---------------------| 
g|--10-10--10--10--10--|---10-10--10--10--10-| 
d|--11-11--11--11--11--|---11-11--11--11--11-| 
a|--9--9---9---9---9---|---9--9---9---9---9--| 
e|---------------------|---11-11--11--11--11-| x2 

Chorus 

e|-------------------------|---------------------------| 
b|-------------------------|---------------------------| 
g|-------------------------|-8-8--8-8-8--8-8-8--8-8-8--| 
d|-4--4--4-4--6--6-6--6-6--|-8-8--8-8-8--8-8-8--8-8-8--| 
a|-4--4--4-4--6--6-6--6-6--|-6-6--6-6-6--6-6-6--6-6-6--| 
e|-2--2--2-2--4--4-4--4-4--|---------------------------| 

intro 

e|---------------------|---------------------| 
b|--b------------------|---------------------| 
g|--10-10--10--10--10--|---10-10--10--10--10-| 
d|--11-11--11--11--11--|---11-11--11--11--11-| 
a|--9--9---9---9---9---|---9--9---9---9---9--| 
e|---------------------|---11-11--11--11--11-| x2 

breakdown  

e|--------------------------------|-------------------------------| 
b|--------------------------------|-------------------------------| 
g|--------------------------------|----------------8--8-8-8-------| 
d|-4--4-4-4-4-4-4-4-4-4-4-4-4-4-4-|-8--8-8-8-8-8-8-8--8-8-8--3-3-3| 
a|-4--4-4-4-4-4-4-4-4-4-4-4-4-4-4-|-8--8-8-8-8-8-8-6--6-6-6--3-3-3| 
e|-2--2-2-2-2-2-2-2-2-2-2-2-2-2-2-|-6--6-6-6-6-6-6-----------1-1-1| x2 
PM    * * * * * * * * * * * * * *      * * * * * *    * * *   
solo 

e|----------------------|----------------------------| 
b|-11----9--------------|------------------9-11------| 
g|----10---10-----------|-10-10-10-11br-----------10-| 
d|------------10/11-----|--------------11------------| 
a|----------------------|----------------------------| 
e|----------------------|----------------------------| x4 

{end} 

(once you play the solo for the 4th time the last bar ends like this instead)  

{end} 

e|--------------------------|--------------------| 
b|------------------9-11-11-|-9------------------| 
g|-10-10-10-11br------------|-10-----------------| 
d|----------------11--------|-11-----------------| 
a|--------------------------|--------------------| 
e|--------------------------|--------------------| 
                              *let ring 
                               

************************************ 

| br  Bend release 
| /   Slide up 
| PM  Palm mute 

************************************ 
  

top 5 | title fight
top punk rock
Outras músicas do artista letras do(a) Title Fight
3.
Leaf
Top cifras »Top artistas »
Petaxxon Comunicação Online
Cifras.com.br - Melhor e mais completo site de cifras e tablaturas do Brasil
Mais de 1 milhão de acordes de músicas cadastradas desde 2003
As informações contidas no nosso site são colaborações de seus usuários e podem conter erros, sendo assim, não nos responsabilizamos sobre nenhuma destas.
close
menos
mais
close
Cor dos acordes:

Cor da letra:

 

save
close
close
 
redimensionar