Cifras e Tablaturas
TNT

TNT

Destiny

Cifras Cancelar Versão de Impressão
cifras

TNT - Destiny

fixar na tela  
Exibindo: vídeo-aula ver clipes redimensionar

Tom:

  
Intro 
Eb|-----------------------------------------------------------| 
Bb|-----------------------------------------------------------| 
Gb|-5-----5-----4-----5-----------------7-----4-----5---5-5-5-| 
Db|-7-----7-----6-----7-----------------9-----6-----7---7-7-7-| 
Ab|-----------------------------------------------------------| 
Eb|---0-0---0-0---0-0---0-0-0-0-0-0-0-0---0-0---0-0-----------| 

Eb|---------------------------------------------------------------------| 
Bb|-10-----10-----9-----10-----------------12-----9-----10----10-10-10--| 
Gb|--9------9-----9------9------------------9-----9------9-----9--9--9--| 
Db|---------------------------------------------------------------------| 
Ab|---------------------------------------------------------------------| 
Eb|----0-0----0-0---0-0----0-0-0-0-0-0-0-0----0-0---0-0-----------------| 

Verse 
Eb|----------------------------------------------| 
Bb|----------------------------------------------| 
Gb|-5-----------------7-10-7---7-10-7------------| 
Db|----5------------7--------8----------7-6------| 
Ab|-------5--7-8~--PM-------PM--------7-----7----| 
Eb|-------------------------------------------7--| 
                   PM       PM                          
Eb|------------------------------------------------------------| 
Bb|----17-17-18-18----15-15-17-17----13-13-15-15---13-12-10-9--| 
Gb|-14-------------12-------------10-------------9-------------| 
Db|------------------------------------------------------------| 
Ab|------------------------------------------------------------| 
Eb|------------------------------------------------------------| 

Eb|--------------------------------------------------------------| 
Bb|--------------------------------------------------------------| 
Gb|--------------------------------------------------------------| 
Db|----------------------2---------------------------------------| 
Ab|-5--4--3-----0-2~--3----2-----------0--/x\--1--0--------------| 
Eb|----------3----------------3--1--3----------------4--0---/x\--| 

Eb|-------------------------------------------------------------| 
Bb|-------------------------------------------------------------| 
Gb|-------------------------------------------------------------| 
Db|-------------------------------------------------------------| 
Ab|-.------.------.------.------.------.--------2----3----5-----| 
Eb|-1--1-1-1--1-1-2--2-2-2--2-2-3--3-3-3--3-3-4---/5---/6---0---| 

Eb|-----------------------------------------------------------| 
Bb|-----------------------------------------------------------| 
Gb|-5-----5-----4-----5-----------------7-----4-----5---5-5-5-| 
Db|-7-----7-----6-----7-----------------9-----6-----7---7-7-7-| 
Ab|-----------------------------------------------------------| 
Eb|---0-0---0-0---0-0---0-0-0-0-0-0-0-0---0-0---0-0-----------| 

Eb|----------------------------------------------| 
Bb|----------------------------------------------| 
Gb|-5-----------------7-10-7---7-10-7------------| 
Db|----5------------7--------8----------7-6------| 
Ab|-------5--7-8~---------------------7-----7----| 
Eb|-------------------------------------------7--| 
                   PM       PM 
Eb|---------------------------------------------------------------------------| 
Bb|---------------------------------------------------------------------------| 
Gb|-7--7-9-10-9-7----------7^9--5--5-7-9-7-5--------5--3--3-5-7-5-3---------4-| 
Db|--- -----------10-9--10-------------------9-7--9------------------7-6--7---| 
Ab|---------------------------------------------------------------------------| 
Eb|---------------------------------------------------------------------------| 
       PMPMPM                     PMPMPM                 PMPMPM 

Solo 
Eb|----------------------------------------------------------------------------| 
Bb|-/6--5h6p5--/10--9h10p9--/13--12h13p12--10----------------------------------| 
Gb|--------------------------------------------13--10--9-----------------------| 
Db|-------------------------------------------------------12-10^12--9^10--6^7--| 
Ab|----------------------------------------------------------------------------| 
Eb|----------------------------------------------------------------------------| 

Eb|----------------------------------------------------------| 
Bb|----------------------------------------------------------| 
Gb|-------------------------------------9-10-13----13-14-17--| 
Db|-Arm---12/19\-12/19\-12/19\-12/19\------------------------| 
Ab|-Down-----------------------------------------------------| 
Eb|-0\-------------------------------------------------------| 

Eb|---------------------------------------------------------------------| 
Bb|---------------------------------------------------------------------| 
Gb|-/12\--/14\--/17\-/18\--9-10-13--------------------------------------| 
Db|---------------------------------9-9-9-9-9-12-9----------------------| 
Ab|------------------------------------------------10-10-10-10-10-12-10-| 
Eb|---------------------------------------------------------------------| 

Eb|---------------------------------------------------------------------------| 
Bb|---------------------------------------------------------------------------| 
Gb|---------------------------------------------------------------------------| 
Db|---------------------------------------------------------------------------| 
Ab|-5/7-7-7...----/14--12-12-14-12-10-10-12-10-9-9-10-9-7-7-9-7---------------| 
Eb|-------------------------------------------------------------3\--0-0--0-0--| 

Eb|-----------------------------------------14bh/-14bh/------------------------| 
Bb|-15-------15~---------------------------x--------------17-17--15-15--12-12--| 
Gb|-14b1/\~--14~--12-12bq/----.-----------x---------------16-16--14-14--12-12--| 
Db|--------------------------14--12-14~----------------------------------------| 
Ab|----------------------------------------------------------------------------| 
Eb|----------------------------------------------------------------------------| 
                             PM  PM 
Eb|--------------------------------------------------| 
Bb|--------------------------------------------------| 
Gb|---12-11-12~---9-12-9-0--------9-12-9-9-9---/14\--| 
Db|------------------------12------------------------| 
Ab|--------------------------------------------------| 
Eb|-0------------------------------------------------| 

Eb|----------------------------------------------------------------------------| 
Bb|----------------------------------------------------------------------------| 
Gb|-12-12-14-12-12-12-9-9-12-9-9-9-7-7-9-7-7-7-4-4-9-4-4-4-2-2-4-2-2-0-0-2-0---| 
Db|----------------------------------------------------------------------------| 
Ab|--------------------------------------------------------------------------0-| 
Eb|----------------------------------------------------------------------------| 
Solo 
Eb|----------------------------------------------------------------------------| 
Bb|-------12-15-------12-15-12-12-12-------12-15-------12-15-12-------12-12-15-| 
Gb|-14b1/-------14b1/----------------14b1/-------14b1/----------14b1/----------| 
Db|----------------------------------------------------------------------------| 
Ab|----------------------------------------------------------------------------| 
Eb|----------------------------------------------------------------------------| 

Eb|----------------12----------------------12----------------------12----| 
Bb|-------12-12-15----15-12-------12-12-15----15-12-------12-12-15----15-| 
Gb|-14b1/-------------------14b1/-------------------14b1/----------------| 
Db|----------------------------------------------------------------------| 
Ab|----------------------------------------------------------------------| 
Eb|----------------------------------------------------------------------| 

Eb|----------------------------12----------------12--------------12-15-12--| 
Bb|-------12-12-15-------12-15----15-------12-15----15--------12-----------| 
Gb|-14b1/----------14b1/-------------14b1/--------------14b1/--------------| 
Db|------------------------------------------------------------------------| 
Ab|------------------------------------------------------------------------| 
Eb|------------------------------------------------------------------------| 

Eb|-------------12----------------------------------------12-------------| 
Bb|-------12-15----15---------------------15b1/~-------12----15-12-15-12-| 
Gb|-14b1/---------------14-15-16-14-15-16--------14b1/-------------------| 
Db|----------------------------------------------------------------------| 
Ab|----------------------------------------------------------------------| 
Eb|----------------------------------------------------------------------| 

Eb|-11-11-11-12-15-12--11-11-12-15-11-11--11-11-11-12-15-12--11-11-12-15-11-11-| 
Bb|----------------------------------------------------------------------------| 
Gb|----------------------------------------------------------------------------| 
Db|----------------------------------------------------------------------------| 
Ab|----------------------------------------------------------------------------| 
Eb|----------------------------------------------------------------------------| 

Eb|-------------------------------------------------------------| 
Bb|-11-12-15-11-11-11-12-15-12-11-11-15-15-12-12-11-11-11-12-15-| 
Gb|-------------------------------------------------------------| 
Db|-------------------------------------------------------------| 
Ab|-------------------------------------------------------------| 
Eb|-------------------------------------------------------------| 

Eb|--------------------------------------------------------------| 
Bb|-15-12-11-11-11-12-15-12-11-11-11-12-15-12-14bh/~--\-14-13-12-| 
Gb|--------------------------------------------------------------| 
Db|--------------------------------------------------------------| 
Ab|--------------------------------------------------------------| 
Eb|--------------------------------------------------------------| 

Eb|-----------------------------------------------------------------------------| 
Bb|-------12-12-13-12----12-----------------------------------------------------| 
Gb|-14b1/-------------15----15-14~--12-14-----9-12-9-0-9-12-9-0-9-12-9-0-9-12-9-| 
Db|---------------------------------------14------------------------------------| 
Ab|-----------------------------------------------------------------------------| 
Eb|-----------------------------------------------------------------------------| 

Eb|-----------------------------------------| 
Bb|-----------------------------------------| 
Gb|-7h9h12p9p-6h9h12p9p-5h9h12h9p-4h9h12h9p-| 
Db|-@---------@---------@---------@---------| 
Ab|-----------------------------------------| 
Eb|-----------------------------------------| 

Eb|-7-0-0-0-4-0-0-0-7-0-0-0-4-0-0-0-7-0-0-0-4-0-0-5--2-2--| 
Bb|-------------------------------------------------------| 
Gb|-------------------------------------------------------| 
Db|-------------------------------------------------------| 
Ab|-------------------------------------------------------| 
Eb|-------------------------------------------------------| 

Verse 
Eb|---------------------------------------------------------| 
Bb|---------------------------------------------------------| 
Gb|-9-9-----11-----8--11---8-11-8---------------------------| 
Db|-----11------9--------9--------9-------------------------| 
Ab|---------------------------------------------------------| 
Eb|----------------------------------3-4-5-4-3-4-5-4-3-4-5--| 

Eb|-------------------------------------------------------------------------| 
Bb|-------------------------------------------------------------------------| 
Gb|----9h12p9----9h12p9----9h12p9--/x\--/x\---14-14-14-16-14-12-12-12-14-12-| 
Db|-12--------12--------12--------------------------------------------------| 
Ab|-------------------------------------------------------------------------| 
Eb|-------------------------------------------------------------------------| 

Eb|---------------------------------------------------------------| 
Bb|---------------------------------------------------------------| 
Gb|-9-9-9-9-12-9-9-9-12-9-14-9-9-14-9-9-9-9-9-12-14-9-9-9-9-12-14-| 
Db|---------------------------------------------------------------| 
Ab|---------------------------------------------------------------| 
Eb|---------------------------------------------------------------| 

Eb|---------------------------------------------------------------------| 
Bb|---------------------------------------------------------------------| 
Gb|-9-9-9-9-9-12-14-9-9-9-9-12-14-9-9-9-9-12-9----9h12p9p0----9h12p9p0--| 
Db|--------------------------------------------12----------12-----------| 
Ab|---------------------------------------------------------------------| 
Eb|---------------------------------------------------------------------| 

Eb|---------------------------------------------------------------------------| 
Bb|---------------------------------------------------------------------------| 
Gb|----9h12p9----9h12p9----9h12p9----9h12p9----9h12p9----9h12p9p0---9h12p9p0--| 
Db|-12--------12--------12--------12--------12--------12----------12----------| 
Ab|---------------------------------------------------------------------------| 
Eb|---------------------------------------------------------------------------| 

Eb|------------------------------------------------------| 
Bb|------------------------------------------------------| 
Gb|----9h12p9----9h12p9----9h12p9----9h12p9----9h12p9p0--| 
Db|-12--------12--------12--------12--------12-----------| 
Ab|------------------------------------------------------| 
Eb|------------------------------------------------------| 

Eb|----------------------------------------------------------------| 
Bb|----------------------------------------------------------------| 
Gb|----------------------------------------------------------------| 
Db|----------------------------------------------------------------| 
Ab|-x/--12-12-12-14-12-10-10-10-12-10-7-7-10-7-5-5-7-5-------------| 
Eb|----------------------------------------------------5-5-7-5-3-0-| 

Eb|-----------------------------------------------------------------------------| 
Bb|-------------------------3-4-5-6-7-8-9--10-11-12-13-14-15-16-17-18-19-20-21x-| 
Gb|---7-------------------------------------------------------------------------| 
Db|-9-9---0-5-7-5-7-5--x/-------------------------------------------------------| 
Ab|-----------------------------------------------------------------------------| 
Eb|-----------------------------------------------------------------------------| 
          PM 

Eb|-----------------------------------------------------------------------------| 
Bb|-----------------------------------------------------------------------------| 
Gb|--------------------------5--5---7--7---------------------------7--7---5--5--| 
Db|-5h7----------------------5--5---7--7--5h7----------------------7--7---5--5--| 
Ab|-----0-0-0-0-0-0-0-0-0-0-------------------0-0-0-0-0-0-0-0-0-0---------------| 
Eb|-----------------------------------------------------------------------------| 

Eb|-----------10-9-12-10-14-12-16\---------------------------| 
Bb|----------------------------------------------------------| 
Gb|-10-11-14------------------------13-14-17-13b1/-13-14-17--| 
Db|----------------------------------------------------------| 
Ab|----------------------------------------------------------| 
Eb|----------------------------------------------------------| 

Eb|-----------------------------------------------------------------| 
Bb|-------@---------------------------------------------------------| 
Gb|-12b1/-13-12u\-p10-\9-h10-p9-h10-p9-\7-h9-p7-p5-p2---------------| 
Db|------------------------------------------------------x/--\--x/--| 
Ab|-----------------------------------------------------------------| 
Eb|-----------------------------------------------------------------| 

Eb|--------------------------------------------| 
Bb|--------------------------------------------| 
Gb|-2-----5-----7-----5---2-----5-----7-----5--| 
Db|-2---------------------2--------------------| 
Ab|-----5/7---7/9---5/7-------5/7---7/9---5/7--| 
Eb|--------------------------------------------| 

Eb|-------------------------------------------------------------| 
Bb|-------------------------------------------------------------| 
Gb|-------------------------------------------------------------| 
Db|----------2--------------2-----------------.-----------------| 
Ab|-2--5-4-2---5-4-2--5-4-2---5-4-.--.--.--.--0--.--.-----------| 
Eb|-------------------------------0--3--2--0-----3--2--5~---x/--| 
Solo 
Eb|-10~--10-12-13~----12h13p12~--------------------------10-----10--| 
Bb|------------------------------13--13--10--10~------10----13------| 
Gb|------------------------------------------w/----12---------------| 
Db|------------------------------------------arm--------------------| 
Ab|-----------------------------------------------------------------| 
Eb|-----------------------------------------------------------------| 

Eb|-12-bh/\/\--------------------------------10-13-13/15~------------| 
Bb|----------x----------------------------10-----------------13gq\~--| 
Gb|-----------x\7-----7-10-9-10-/12~---12----------------------------| 
Db|----------------7-------------------------------------------------| 
Ab|------------------------------------------------------------------| 
Eb|------------------------------------------------------------------| 
                   PM 
Eb|------------------------------------------------------------| 
Bb|-13p10--13p10--13p10-13p10-13p10-13p10---13p10--13~---------| 
Gb|--------------------------------------13------13------------| 
Db|------------------------------------------------------10~---| 
Ab|------------------------------------------------------------| 
Eb|------------------------------------------------------------| 
                               
Eb|-----------------------------13------------------------------| 
Bb|------------13-13-13~-------------13-13----------------------| 
Gb|-9-10-12---------------10---------------10-10-12~------------| 
Db|---------10---------------------------------------10-----10--| 
Ab|-------------------------------------------------------------| 
Eb|-------------------------------------------------------------| 

Eb|--------15--------------------------------| 
Bb|-13/15-------------13-13~--/15---12bh/~-\-| 
Gb|-------------14-14------------------------| 
Db|------------------------------------------| 
Ab|------------------------------------------| 
Eb|------------------------------------------| 

Eb|--------------------------------------------------------------| 
Bb|---------------11-10----10------------------------------------| 
Gb|-13bh/-13u-13u-------13----13-12-10--12-10--------------------| 
Db|-------------------------------------------12-10-10~--/12~--\-| 
Ab|--------------------------------------------------------------| 
Eb|--------------------------------------------------------------| 
Outro 
Eb|------0---------------------------5--3/4--4~-------------10----------| 
Bb|-3/5----3~----2----------3/5-5~---5-----------5--3~------10b1/\~--\--| 
Gb|-2/4----------2-4-2p0-2~---------------------------------------------| 
Db|---------------------------------------------------------------------| 
Ab|---------------------------------------------------------------------| 
Eb|---------------------------------------------------------------------| 

Eb|---------------------------------------| 
Bb|-1/3-3-3-3---------------5-3-5---------| 
Gb|-2/4-4-4-4--2/4-0--2~------------------| 
Db|---------------------------------------| 
Ab|---------------------------------------| 
Eb|--------------------------------3--0---| 

Eb|-------------------------------------------------------------------------| 
Bb|-------------------------------------------------------------------------| 
Gb|--------------------------------------------------------------------7-9~-| 
Db|---0-2-4~----------------------4bq/~-4bq/~------------------5-7-7/9------| 
Ab|-2------------5-5h7~-----7-7-7-----------------5-7-7~-----7--------------| 
Eb|------------0----------0---------------------0----------0----------------| 
    PM         PM         PMPMPMPM              PMPMPM     PMPMPMPM 
                                     .  .  .  .  . 
Eb|-------------------12--------------14-15-17-19-22-22b1/~-22u~-------| 
Bb|----------------------15b1/~---15u----------------------------------| 
Gb|-9/11-12-12/14~-\---------------------------------------------------| 
Db|--------------------------------------------------------------------| 
Ab|----------------------------------------------------------------x\--| 
Eb|--------------------------------------------------------------------| 


 
  

top 5 | tnt
top
Outras músicas do artista letras do(a) TNT
Top cifras »Top artistas »
Petaxxon Comunicação Online
Cifras.com.br - Melhor e mais completo site de cifras e tablaturas do Brasil
Mais de 1 milhão de acordes de músicas cadastradas desde 2003
As informações contidas no nosso site são colaborações de seus usuários e podem conter erros, sendo assim, não nos responsabilizamos sobre nenhuma destas.
close
menos
mais
close
Cor dos acordes:

Cor da letra:

 

save
close
close
 
redimensionar