Cifras e Tablaturas
TNT

TNT

Mother Warned Me

Cifras Cancelar Versão de Impressão
cifras

TNT - Mother Warned Me

fixar na tela  
Exibindo: vídeo-aula ver clipes redimensionar

Tom:

  

Intro 
Eb|-----------------------------------------------------------------| 
Bb|-----------------------------------------------------------------| 
Gb|---------------------------------------------------5----7--7-----| 
Db|-5-----3--3------5-5---3-----------5-----3--3------3----5--5-----| 
Ab|-3-----1--1------3-3---1--1--1-----3-----1--1----------------x\--| 
Eb|-----3-------3-3-----3---------3-1-----3-------3-3----3----------| 
               PMPM             PM               PMPM   PM 
Eb|-----------------------------------------------------------------| 
Bb|-----------------------------------------------------------------| 
Gb|---------------------------------------------------5----7--7-----| 
Db|-5-----3--3------5-----3-----------5-----3--3------3----5--5-----| 
Ab|-3-----1--1------3-----1--1--1-----3-----1--1----------------x\--| 
Eb|-----3-------3-3-----3---------3-1-----3-------3-3----3----------| 
               PMPM             PM               PMPM   PM 
Eb|--------------------------------------------------------------------| 
Bb|--------------------------------------------------------------------| 
Gb|---------------------------------------------------5--5--5/7-7------| 
Db|-5-----3--3------5-5---3-----------5-----3--3------3--3--3/5-5------| 
Ab|-3-----1--1------3-3---1--1--1-----3-----1--1----------------xxx\---| 
Eb|-----3-------3-3-----3---------3-1-----3-------3-3------------------| 
               PMPM             PM               PMPM   PM 
Eb|-----------------------------------------------------------------| 
Bb|-----------------------------------------------------------------| 
Gb|---------------------------------------------------5----7--7-----| 
Db|-5-----3--3------5-----3-----------5-----3--3------3----5--5-----| 
Ab|-3-----1--1------3-----1--1--1-----3-----1--1----------------x\--| 
Eb|-----3-------3-3-----3---------3-1-----3-------3-3----3----------| 
               PMPM             PM               PMPM   PM 
Eb|--------------------------------------------------------------------| 
Bb|--------------------------------------------------------------------| 
Gb|---------------------------------------------------5--5--5/7-7------| 
Db|-5-----3--3------5-5---3-----------5-----3--3------3--3--3/5-5------| 
Ab|-3-----1--1------3-3---1--1--1-----3-----1--1----------------xxx\---| 
Eb|-----3-------3-3-----3---------3-1-----3-------3-3------------------| 
               PMPM             PM               PMPM   PM 
Eb|------------------------------------------------------------------------| 
Bb|------------------------------------------------------------------------| 
Gb|-3~-----------------------------------------------------3--2h3----------| 
Db|---------------------------------------------3--0--------------0h3h5p3--| 
Ab|-----1-3-1-3/6-3--1---------1~-----------5\--1-----3~-------------------| 
Eb|---------------------3--1-3----------6-6--------------------------------| 
    PM PM         PM      PM   PM      PMPM       PM    
Eb|-------------------------------| 
Bb|-------------------------------| 
Gb|-3~----------------------------| 
Db|-----5-------------------------| 
Ab|--------3\1-3-3~--/\--1--------| 
Eb|-------------------------3~-/--| 

 1st Verse 
Eb|-----------------------------------------------------------------| 
Bb|-----------------------------------------------------------------| 
Gb|---------------------------------------------------5----7--7-----| 
Db|-5-----3--3------5-----3-----------5-----3--3------3----5--5-----| 
Ab|-3-----1--1------3-----1--1--1-----3-----1--1----------------x\--| 
Eb|-----3-------3-3-----3---------3-1-----3-------3-3----3----------| 
               PMPM             PM               PMPM   PM 
Eb|--------------------------------------------------------------------| 
Bb|--------------------------------------------------------------------| 
Gb|---------------------------------------------------5--5--5/7-7------| 
Db|-5-----3--3------5-5---3-----------5-----3--3------3--3--3/5-5------| 
Ab|-3-----1--1------3-3---1--1--1-----3-----1--1----------------xxx\---| 
Eb|-----3-------3-3-----3---------3-1-----3-------3-3------------------| 
               PMPM             PM               PMPM   PM 
Eb|-------------------------------------------------------| 
Bb|-------------------------------------------------------| 
Gb|-------------------------------------------------7-----| 
Db|-5-----3---------5-----3---------5-----3---------5-----| 
Ab|-3-----1---------3-----1---------3-----1---------------| 
Eb|-----3-------3-3-----3-------3-3-----3-------3-3-------| 
               PMPM            PMPM            PMPM 
Eb|--------------------------------------------------------------------| 
Bb|--------------------------------------------------------------------| 
Gb|---------------------------------------------------5--5--5/7-7------| 
Db|-5-----3--3------5-5---3-----------5-----3--3------3--3--3/5-5------| 
Ab|-3-----1--1------3-3---1--1--1-----3-----1--1----------------xxx\---| 
Eb|-----3-------3-3-----3---------3-1-----3-------3-3------------------| 
               PMPM             PM               PMPM   PM 
  0'46"        0'53"       0'56"        1'00" 
Eb|---------------------------------------13~---------------------| 
Bb|---8--6~-------------------14bh/\------15~---13------13~-------| 
Gb|-7-----------------------------------------------15------------| 
Db|--------------2/12~\-------------------------------------------| 
Ab|---------------------------------------------------------------| 
Eb|---------------------------------------------------------------| 

 1st Pre-Chorus 
Eb|---------------------------------------------------------------------| 
Bb|------------------------------------------------6--------------------| 
Gb|--------5----5--5-5--5-------5-5--5----5-5-5----5---------7----------| 
Db|--------5----5--5-5--5----5--5-5--5----5-5-5----3---------7----------| 
Ab|-3------3--x-3--3-3--3--x-3--3-3--3--x-3-3-3-xx--------xx-5----------| 
Eb|--------------------------0-------------------------------------/x\--| 

 1st Chorus 
Eb|----------------------------------------------------| 
Bb|-------------------------------6--6-6---6----6--6---| 
Gb|--------------------------5----5--5-5---5----5--5---| 
Db|----------------------3---3--x-3--3-3-x-3--x-3--3---| 
Ab|---------------3-3------------------------------x\--| 
Eb|-3---5-5--6-6---------------------------------------| 
       PM   PM   PM 
Eb|------------------------------------------| 
Bb|------------------------------------------| 
Gb|----------------------5----5--5--3--------| 
Db|----------------------3--x-3--3--1--------| 
Ab|---------------3-3------------------------| 
Eb|-3---5-5--6-6------------------------/x\--| 
       PM   PM   PM 
Eb|------------------------------------------| 
Bb|------------------------------------------| 
Gb|----------------------7----6--5-----------| 
Db|------------------------------------------| 
Ab|------------------------------------------| 
Eb|------------------------------------------| 

Eb|-----------------------------------------------------------------| 
Bb|-----------------------------------------------------------------| 
Gb|---------------------------------------------------5----7--7-----| 
Db|-5-----3--3------5-----3-----------5-----3--3------3----5--5-----| 
Ab|-3-----1--1------3-----1--1--1-----3-----1--1----------------x\--| 
Eb|-----3-------3-3-----3---------3-1-----3-------3-3---------------| 
               PMPM             PM               PMPM 
Eb|--------------------------------------------------------------------| 
Bb|--------------------------------------------------------------------| 
Gb|---------------------------------------------------5--5--5/7-7------| 
Db|-5-----3--3------5-5---3-----------5-----3--3------3--3--3/5-5------| 
Ab|-3-----1--1------3-3---1--1--1-----3-----1--1----------------xxx\---| 
Eb|-----3-------3-3-----3---------3-1-----3-------3-3------------------| 
               PMPM             PM               PMPM   PM 
Eb|-13~----13--13--13-----------------------------------------| 
Bb|-15~---------------15~\----------------------8--11-11-11~--| 
Gb|--------------------------5~-x5x-x-------------------------| 
Db|-----------------------------------PHPHPH------------------| 
Ab|-----------------------------------3-1-3~------------------| 
Eb|-----------------------------------------------------------| 

Eb|------------------------------------------------------------| 
Bb|--------------------------------------------------------6~--| 
Gb|------------------------3-7-5-3---5-3-----------------------| 
Db|--------PH--------3-5-7---------7-----7-5-3-----------------| 
Ab|-1--PH--3~-----xxx--------------------------6-5-3-.-.-------| 
Eb|----3~--------------------------------------------6-6-------| 
                     pmpmpm 

 2nd Verse   
Eb|------------------------------------------------------------| 
Bb|------------------------------------------------------------| 
Gb|-------------------------------------------------5---7------| 
Db|-5-----3--x------5-----3--x------5-----3--x------3---5------| 
Ab|-3-----1--x------3-----1--x------3-----1--x-------------x\--| 
Eb|-----3-------3-3-----3-------3-3-----3-------3-3------------| 
               PMPM            PMPM            PMPM 
Eb|----------------------------------------------------------------| 
Bb|----------------------------------------------------------------| 
Gb|-------------------------------------------------5----5----5/7--| 
Db|-5-----3--x------5-----3--x------5-----3--x------3--x-3--x-3/5--| 
Ab|-3-----1--x------3-----1--x------3-----1--x---------------------| 
Eb|-----3-------3-3-----3-------3-3-----3-------3-3----------------| 
               PMPM            PMPM            PMPM 
Eb|------------------------------------------------------------| 
Bb|------------------------------------------------------------| 
Gb|-------------------------------------------------5---7------| 
Db|-5-----3--x------5-----3--x------5-----3--x------3---5------| 
Ab|-3-----1--x------3-----1--x------3-----1--x-------------x\--| 
Eb|-----3-------3-3-----3-------3-3-----3-------3-3------------| 
               PMPM            PMPM            PMPM 
Eb|----------------------------------------------------------------| 
Bb|----------------------------------------------------------------| 
Gb|-------------------------------------------------5----5----5/7--| 
Db|-5-----3--x------5-----3--x------5-----3--x------3--x-3--x-3/5--| 
Ab|-3-----1--x------3-----1--x------3-----1--x---------------------| 
Eb|-----3-------3-3-----3-------3-3-----3-------3-3----------------| 
               PMPM            PMPM            PMPM 
Eb|-----------------------| 
Bb|-----------------------| 
Gb|-----------------------| 
Db|-12~---\10h12p10-PH----| 
Ab|-----------------10~---| 
Eb|-----------------------| 

 2nd Pre-Chorus 
Eb|------------------------------------------------------------------------| 
Bb|------------------------------------------------6-----------------------| 
Gb|--------5----5--5-5--5----5--5-5--5----5-5-5----5---------7------7------| 
Db|--------5----5--5-5--5----5--5-5--5----5-5-5----3---------7------7------| 
Ab|-3------3--x-3--3-3--3--x-3--3-3--3--x-3-3-3-xx--------xx-5--5-5-5------| 
Eb|-------------------------------------------------------------------/x\--| 
 Guitar at CD time : 2'22"                                     PMPM 
Eb|--------------| 
Bb|--------------| 
Gb|-7~-----------| 
Db|-------8/10~--| 
Ab|--------------| 
Eb|--------------| 

2nd Chorus  
Eb|----------------------------------------------------| 
Bb|-------------------------------6--6-6---6----6--6---| 
Gb|--------------------------5----5--5-5---5----5--5---| 
Db|----------------------3---3--x-3--3-3---3--x-3--3---| 
Ab|---------------3-3----------------------------------| 
Eb|-3---5-5--6-6---------------------------------------| 
       PM   PM   PM 
Eb|------------------------------------------| 
Bb|------------------------------------------| 
Gb|----------------------5----5--5--3--------| 
Db|----------------------3--x-3--3--1--------| 
Ab|---------------3-3------------------------| 
Eb|-3---5-5--6-6------------------------/x\--| 
       PM   PM   PM 
Eb|------------------------------------------| 
Bb|------------------------------------------| 
Gb|----------------------7----6--5-----------| 
Db|------------------------------------------| 
Ab|------------------------------------------| 
Eb|------------------------------------------| 

Eb|----------------------------------------------------| 
Bb|-------------------------------6--6-6---6----6--6---| 
Gb|--------------------------5----5--5-5---5----5--5---| 
Db|----------------------3---3--x-3--3-3---3--x-3--3---| 
Ab|---------------3-3----------------------------------| 
Eb|-3---5-5--6-6---------------------------------------| 
       PM   PM   PM 
Eb|------------------------------------------------------------| 
Bb|------------------------------------------------------------| 
Gb|----------------------5----5--5--3-------5----5--5--3-------| 
Db|----------------------3--x-3--3--1-------3--x-3--3--1-------| 
Ab|---------------3-3------------------------------------------| 
Eb|-3---5-5--6-6------------------------------------------\x\--| 
       PM   PM   PM 
Eb|------------------------------------------------------------| 
Bb|------------------------------------------------------------| 
Gb|----------------------7----6--5----------7----6--5----------| 
Db|------------------------------------------------------------| 
Ab|------------------------------------------------------------| 
Eb|------------------------------------------------------------| 

 Guitar Solo 
Eb|-----------------------------------------------------24-24----24------------| 
Bb|-/22~---20-22b1/--22b1/--ubh/~------------------/22-------------------------| 
Gb|----------------------------------17gh-b\-\14--------------21----19\17------| 
Db|-----------------------------------------------------------------------17~--| 
Ab|----------------------------------------------------------------------------| 
Eb|----------------------------------------------------------------------------| 

Eb|-----------------------------------------------------------------------| 
Bb|-----------1---------------------------------------------------5h7p5p0-| 
Gb|-0h2p0---0---0-2-------------------------11bh/\~-----5h7p5p0-7---------| 
Db|-------2---------0-0---------------7~----12bh/\~---7-------------------| 
Ab|---------------------3^0-----------------------------------------------| 
Eb|-----------------------------------------------------------------------| 

Eb|------------------------------------------------------------------| 
Bb|------------------------------------------------------------------| 
Gb|----------------12--10-------.----------------10----------7h10p7--| 
Db|------------12------10--8~---5------------12--10--8~-10~----------| 
Ab|-------------------------------3\1~--x/\--------------------------| 
Eb|------------------------------------------------------------------| 

Eb|---------------------------------------------.--15~---| 
Bb|-------------------------------------------/15--------| 
Gb|-----10--------------------------10-------------------| 
Db|-12--10--8~------------------12--10--8~---------------| 
Ab|-------------x/---6----6-6~---------------------------| 
Eb|--------------------5---------------------------------| 
                       PM 
Eb|---------------------------------------------------------------| 
Bb|---------------------------------------------------------------| 
Gb|-------------------------------------------------7----9--9-----| 
Db|-7-----7--7------7-----7--7------7-----7--7------5----7--7-----| 
Ab|-5---0-5--5--0-0-5---0-5--5--0-0-5---0-5--5--0-0-----------x\--| 
Eb|---------------------------------------------------------------| 
               PMPM            PMPM            PMPM 
Eb|---------------------------------------------------------------| 
Bb|---------------------------------------------------------------| 
Gb|-------------------------------------------------7--7--7/9--9--| 
Db|-7-----7--7------7-----7--7------7-----7--7------5--5--5/7--7--| 
Ab|-5---0-5--5--0-0-5---0-5--5--0-0-5---0-5--5--0-0---------------| 
Eb|---------------------------------------------------------------| 
               PMPM            PMPM            PMPM 
Eb|---------------------------------------------------| 
Bb|---------------------------------------------------| 
Gb|-7---7------7----7--7-7--7----7--7-7--7----7--7-7--| 
Db|-7---7------7----7--7-7--7----7--7-7--7----7--7-7--| 
Ab|-5---5---5--5--x-5--5-5--5--x-5--5-5--5--x-5--5-5--| 
Eb|---------------------------------------------------| 

Eb|---------------------------------------------------| 
Bb|---------------------------------------------------| 
Gb|-7----7--7-7--7----7--7-7--7----7--7-7--7----7--7--| 
Db|-7----7--7-7--7----7--7-7--7----7--7-7--7----7--7--| 
Ab|-5--x-5--5-5--5--x-5--5-5--0--x-0--0-0--0--x-0--0--| 
Eb|---------------------------------------------------| 

Eb|-----------------------------------------------------------------| 
Bb|-----------------------------------------------------------------| 
Gb|---------------------------------------------------5----7--7-----| 
Db|-5-----3--3------5-----3-----------5-----3--3------3----5--5-----| 
Ab|-3-----1--1------3-----1--1--1-----3-----1--1----------------x\--| 
Eb|-----3-------3-3-----3---------3-1-----3-------3-3----3----------| 
               PMPM                              PMPM   PM 
Eb|-----------------------------------------------------------------| 
Bb|-----------------------------------------------------------------| 
Gb|---------------------------------------------------5--5--5/7--7--| 
Db|-5-----3--3------5-----3-----------5-----3--3------3--3--3/5--5--| 
Ab|-3-----1--1------3-----1--1--1-----3-----1--1--------------------| 
Eb|-----3-------3-3-----3---------3-1-----3-------3-3---------------| 

 Last Pre-Chorus 
Eb|---------------------------------------------------------------------| 
Bb|------------------------------------------------6--------------------| 
Gb|--------5----5--5-5--5-------5-5--5----5-5-5----5---------7----------| 
Db|--------5----5--5-5--5----5--5-5--5----5-5-5----3---------7----------| 
Ab|-3------3--x-3--3-3--3--x-3--3-3--3--x-3-3-3-xx--------xx-5----------| 
Eb|--------------------------0-------------------------------------/x\--| 

 Out Chorus 
Eb|----------------------------------------------------| 
Bb|-------------------------------6--6-6---6----6--6---| 
Gb|--------------------------5----5--5-5---5----5--5---| 
Db|----------------------3---3--x-3--3-3---3--x-3--3---| 
Ab|---------------3-3----------------------------------| 
Eb|-3---5-5--6-6---------------------------------------| 
       PM   PM   PM 
Eb|------------------------------------------| 
Bb|------------------------------------------| 
Gb|----------------------5----5--5--3--------| 
Db|--------------------xx3--x-3--3--1--------| 
Ab|---------------3-3------------------------| 
Eb|-3---5-5--6-6------------------------/x\--| 
       PM   PM   PM 
Eb|----------------------------------------------------| 
Bb|-------------------------------6--6-6---6----6--6---| 
Gb|--------------------------5----5--5-5---5----5--5---| 
Db|----------------------3---3--x-3--3-3---3--x-3--3---| 
Ab|---------------3-3----------------------------------| 
Eb|-3---5-5--6-6---------------------------------------| 
       PM   PM   PM 
Eb|------------------------------------------------------------| 
Bb|------------------------------------------------------------| 
Gb|----------------------5----5--5--3-------5----5--5--3-------| 
Db|--------------------xx3--x-3--3--1-------3--x-3--3--1-------| 
Ab|---------------3-3------------------------------------------| 
Eb|-3---5-5--6-6-----------------------------------------------| 
       PM   PM   PM 
Eb|------------------------------1-1-1-1----------------------- 
Bb|-----------------4----4--4-4--3-3-3-2----------4----4--4-4-- 
Gb|-5----5--5--3----3----3--3-3-----------5--3----3----3--3-3-- 
Db|-3--x-3--3--1----1--x-1--1-1-----------3--1----1--x-1--1-1-- 
Ab|------------------------------------------------------------ 
Eb|------------------------------------------------------------ 

Eb|-1-1-1-1--1--------------------1-1-1-1----------| 
Bb|-3-3-3-3--2-------4----4--4-4--3-3-3-2----------| 
Gb|-------------3----3----3--3-3-----------5--3----| 
Db|-------------1----1--x-1--1-1-----------3--1----| 
Ab|------------------------------------------------| 
Eb|------------------------------------------------| 

Eb|------------6--6------8--8-6---------------------5\---| 
Bb|-8--8-6----------8-6---------8-------------------6\---| 
Gb|--------7-----------------------6-5-3-----------------| 
Db|--------------------------------------3-5~------------| 
Ab|------------------------------------------------------| 
Eb|------------------------------------------------------| 

 
  

top 5 | tnt
top
Outras músicas do artista letras do(a) TNT
Top cifras »Top artistas »
Petaxxon Comunicação Online
Cifras.com.br - Melhor e mais completo site de cifras e tablaturas do Brasil
Mais de 1 milhão de acordes de músicas cadastradas desde 2003
As informações contidas no nosso site são colaborações de seus usuários e podem conter erros, sendo assim, não nos responsabilizamos sobre nenhuma destas.
close
menos
mais
close
Cor dos acordes:

Cor da letra:

 

save
close
close
 
redimensionar