Cifras e Tablaturas
TNT

TNT

Purple Mountains Majesty

Cifras Cancelar Versão de Impressão
cifras

TNT - Purple Mountains Majesty

fixar na tela  
Exibindo: vídeo-aula ver clipes redimensionar

Tom:

                 
Eb|------------------------------------------------------------------------| 
Bb|-----------8\-----------------------------------------------------------| 
Gb|--------------------------------12-7p5p0\------2------------------------| 
Db|------------------12-7p5p0-----------------------4-4-4------------------| 
Ab|--------------------------------------------------------4-4-4--3-2-0----| 
Eb|---0-/~---------------------------------------------------------------2-| 
         

Eb|-----------------------------------------------------------------| 
Bb|-----------------------------------------------------------------| 
Gb|-------------------------------------------------------------7---| 
Db|-----------------------------7---5h6-------------------------7---| 
Ab|-----5h7-----4h5---------5h7---7---------5h7-------------5-7-----| 
Eb|-0-------0-0-----0-0-6-7-------------0-------0---0-0-6-7---------| 
         PMPM      

Eb|---------------------------------------------------------------------| 
Bb|---------------------------------------------------------------------| 
Gb|---------------------------------------------------------------------| 
Db|-----------------------------7---5h6---------------------------------| 
Ab|-----5h7-----4h5---------5-7---7---------5h7-----4h5---------4-------| 
Eb|-0-------0-0-----0-0-6-7-------------0-------0-0-----0-0-6-7---6-2~--| 
         PMPM 
Eb|-----------------------------------------------------------------| 
Bb|-----------------------------------------------------------------| 
Gb|-------------------------------------------------------------7---| 
Db|-----------------------------7---5h6-------------------------7---| 
Ab|-----5-7-----4-5---------5-7---7---------5h7-------------5-7-----| 
Eb|-0-------0-0-----0-0-6-7-------------0-----------0-0-6-7---------| 
         PMPM      

Eb|------------------------| 
Bb|-8--8----7--7----8---7--| 
Gb|-7--7----7--7----7---7--| 
Db|------------------------| 
Ab|------------------------| 
Eb|------------------------| 

 1st Verse 
Eb|---------------------------------------------------------| 
Bb|---------------------------------------------------------| 
Gb|---------------------------------------------------------| 
Db|---------------------------------------------------------| 
Ab|----------------------5h7---------4----------------------| 
Eb|-0h2-2-2-2...-----0-------0-0-6-7---6-2~---0h2-2-2-2...--| 
      PMPMPM               PMPMPMPM             PMPMPM 

Eb|----------------------------------------------------------------| 
Bb|----------------------------------------------------------------| 
Gb|-------------------------------------------------------------7--| 
Db|-----------------------------7---5h6-------------------------7--| 
Ab|-----5h7-----4h5---------5h7---7---------5h7-------------5-7----| 
Eb|-0-------0-0-----0-0-6-7-------------0-----------0-0-6-7--------| 
         PMPM   

 1st Pre-Chorus 
Eb|------------------------------------------------------------| 
Bb|------------------------------------------------------------| 
Gb|------5-----------------------------------------------------| 
Db|------3---------------------2h4-----2h4-------------2-4-3-5-| 
Ab|-----------7h9----------------------------------------------| 
Eb|-1-------------x-x-0h2-x-x------0h2-----0h2-0-2-1-3---------| 

1st Chorus 
Eb|---------------------------------------------5-------| 
Bb|------------------------------------5--------5-------| 
Gb|-2---4p2h4/5-----5----5-4-----7-------7--7-----------| 
Db|-2------------xx-5----5-5--xx-7----------7-----------| 
Ab|-0---------------3----3-2-----5----------5-------x\--| 
Eb|-----------------------------------------6-----------| 

Eb|---------------------------------------------5---/10-------| 
Bb|------------------------------------5--------5---/10-------| 
Gb|-2---4p2h4/5-----5----5-4-----7-------7--7-----------------| 
Db|-2------------xx-5----5-5--xx-7----------7-----------------| 
Ab|-0---------------3----3-2-----5----------5-------------x\--| 
Eb|-----------------------------------------6-----------------| 

Eb|-----5---------------------------------| 
Bb|-----5---------------------------------| 
Gb|-2----------2-----2--------------------| 
Db|-2----------2-----2--------------------| 
Ab|-0------x-x-0-x-x-0--------------------| 
Eb|----------------------3-3-3-3-3-3-3-3--| 

 2nd Verse 
Eb|---------------------------------------------------------| 
Bb|---------------------------------------------------------| 
Gb|---------------------------------------------------------| 
Db|---------------------------------------------------------| 
Ab|----------------------5h7---------4----------------------| 
Eb|-0h2-2-2-2...-----0-------0-0-6-7---6-2~---0h2-2-2-2...--| 
      PMPMPM               PMPMPMPM             PMPMPM 

Eb|--------------------------------------------------------------------| 
Bb|--------------------------------------------------------------------| 
Gb|-------------------------------------------------------------7------| 
Db|-----------------------------7---5h6-------------------------7------| 
Ab|-----5h7-----4h5---------5-7---7---------5h7-------------5-7----x\--| 
Eb|-0---------------0-0-6-7-------------0-----------0-0-6-7------------| 
   
2nd Pre-Chorus 
Eb|------------------------------------------------------------| 
Bb|------------------------------------------------------------| 
Gb|------5-----------------------------------------------------| 
Db|------3---------------------2h4-----2h4-------------2-4-3-5-| 
Ab|-----------7h9----------------------------------------------| 
Eb|-1-------------x-x-0h2-x-x------0h2-----0h2-0-2-1-3---------| 

 Guitar at CD time 2'43" 
Eb|--------------------------------------------------------------------------| 
Bb|-15b1/~----15b1/-15u-15u--15u--14\12--------------------------------------| 
Gb|-14b1/~------------------------------14~-----------------9----------------| 
Db|-------------------------------------------x-10bh/~---11---11-11\9p7------| 
Ab|--------------------------------------------------------------------------| 
Eb|---------------------------------------------------------------------9~---| 

 2nd Chorus 
Eb|---------------------------------------------5-------| 
Bb|------------------------------------5--------5-------| 
Gb|-2---4p2h4/5-----5----5-4-----7-------7--7-----------| 
Db|-2------------xx-5----5-5--xx-7----------7-----------| 
Ab|-0---------------3----3-2-----5----------5-------x\--| 
Eb|-----------------------------------------6-----------| 

Eb|---------------------------------------------5---/10-------| 
Bb|------------------------------------5--------5---/10-------| 
Gb|-2---4p2h4/5-----5----5-4-----7-------7--7-----------------| 
Db|-2------------xx-5----5-5--xx-7----------7-----------------| 
Ab|-0---------------3----3-2-----5----------5-------------x\--| 
Eb|-----------------------------------------6-----------------| 

Eb|-----------------------------------------| 
Bb|-----------------------------------------| 
Gb|-2-----2------2-----2--------------------| 
Db|-2-----2------2-----2-------------2/4~---| 
Ab|-0---x-0--x-x-0-x-x-0--------------------| 
Eb|--------------------------3---2~---------| 

Eb|-------------------------------------------------------| 
Bb|-------------------------------------------------------| 
Gb|-------------------------------------------------------| 
Db|-------------.-.------.-.------.-.------.-.------.-----| 
Ab|-.--4h5---.--5-4--.---4-5---.--4-5---.--5-4--.---4-5~--| 
Eb|-0--------0-------0---------0--------0-------0---------| 

Eb|------------------------------------------------------------| 
Bb|------------------------------------------------------------| 
Gb|------------------------------------------------------------| 
Db|-------------.-.------.-.------.-.------.-.------.----------| 
Ab|-.--4-5---.--5-4--.---4-5---.--4-5---.--5-4--.---4-5~---7~--| 
Eb|-0--------0-------0---------0--------0-------0--------------| 

Eb|---------------------------------------------------------------------------| 
Bb|-15\-----------------------------------------------------------------------| 
Gb|---------12b1/----12b1/---------------------14--12-------------------------| 
Db|-------------------------12/14-p12--12b1/----------12-12-15-14bq/-12b1/~\--| 
Ab|---------------------------------------------------------------------------| 
Eb|---------------------------------------------------------------------------| 

Eb|-----------------------------------------------------------| 
Bb|-----------------------------------------------------------| 
Gb|-----------------------------------------------------------| 
Db|-0---12-12--12---------------------------------------------| 
Ab|-----12-12--14--12h14-------12~----------------------------| 
Eb|----------------------15----------10h12p10---x\--x\--x\----| 

Eb|-------15-15\---------10----------------17\----| 
Bb|----------------10bq/----10\--/---\------------| 
Gb|-/16-------------------------------------------| 
Db|-----------------------------------------------| 
Ab|-----------------------------------------------| 
Eb|-----------------------------------------------| 

 Guitar Solo 
Eb|-----------------------------------------------------------------------------| 
Bb|-----------------------------------------------------------------------------| 
Gb|-/12\-/14\12/14\12/14\12/14\12/14\12/14\-12-12-12-14-12-9-9-9-12-9-7-7-7-9-7-| 
Db|-----------------------------------------------------------------------------| 
Ab|-----------------------------------------------------------------------------| 
Eb|-----------------------------------------------------------------------------| 

Eb|----------------------------------------------------------------------------| 
Bb|----------------------------------------------------------------------------| 
Gb|-7h9-0-0-0...-7h9-0-0-0...-7h9-0-0-0...---/12-11-12-14-12-11-12-14-12-11-12-| 
Db|-------------------------------------------^--^--^--^--^--^--^--^--^--^--^--| 
Ab|---------------------------------------x\-----------------------------------| 
Eb|----------------------------------------------------------------------------| 

Eb|------------------------------------------------------------------------| 
Bb|------------------------------------------------------------------------| 
Gb|-12-12-12-14-12-11-11-11-12-11-9-9-9-11-9-7-7-7-9-7-5-5-5-7-5-4-4-4-5-4-| 
Db|------------------------------------------------------------------------| 
Ab|------------------------------------------------------------------------| 
Eb|------------------------------------------------------------------------| 

Eb|----------------------------------------------------------| 
Bb|----------------------------------------------------------| 
Gb|-0-2-4-2-------------------/17\-/17\-/17\-/19\-/17\--/17\-| 
Db|---------0-2-4-2------------------------------------------| 
Ab|-----------------0-2-3-2----------------------------------| 
Eb|----------------------------------------------------------| 

Eb|---------------------------------------------------------------------| 
Bb|---------------------------------------------------------------------| 
Gb|-9-10-13-9-10-13---------------------------/17\-/17\-/17\-/17\-/17\--| 
Db|-----------------7-7-9-7---------------------------------------------| 
Ab|-------------------------5-5-7-5-0-2-3-------------------------------| 
Eb|---------------------------------------4~----------------------------| 

Eb|--------------------------------------------------| 
Bb|--------------------------------------------------| 
Gb|-9-10-13-9-10-13-----------------------------4----| 
Db|-----------------7-7-9-7---------------------2----| 
Ab|-------------------------5-5-7-5-0-2-3-0----------| 
Eb|-----------------------------------------0\-------| 
                                       
Eb|--17-16-14-16-14----15-------17~----| 
Bb|---- ------------17----17------w/---| 
Gb|------------------------------------| 
Db|------------------------------------| 
Ab|------------------------------------| 
Eb|------------------------------------| 

Eb|----------------------------------------------------------------| 
Bb|----------------------------------------------------------------| 
Gb|-------------------------------------------------------------7--| 
Db|-----------------------------7---5h6-------------------------7--| 
Ab|-----5h7-----4h5---------5h7---7---------5h7-------------5-7----| 
Eb|-0---------------0-0-6-7-------------0-----------0-0-6-7--------| 

Eb|--------------------------------------| 
Bb|--------------------------------------| 
Gb|--------------------------------------| 
Db|-2h4-----2h4-------------2-4-3-5------| 
Ab|---------------------------------0----| 
Eb|-----0h2-----0h2-0-2-1-3--------------| 

Eb|---------------------5---/10-------| 
Bb|-----------------5---5---/10-------| 
Gb|-5-4-----7-------7-----------------| 
Db|-5-5-----7-------7-----------------| 
Ab|-3-2-----5-------5-------------x\--| 
Eb|-----------------6-----------------| 

Eb|-----5---------------------------------------------------------------| 
Bb|-----5---------------------------------------------------------------| 
Gb|-2---------2-----2---------------------------------------------------| 
Db|-2---------2-----2------------------2h4-----2h4-------------2-4-3-5--| 
Ab|-0-----x-x-0-x-x-0---------------------------------------------------| 
Eb|----------------------3--x-x-3--x-x-----0h2-----0h2-0-2-1-3----------| 
                                                     
Eb|---------------------------------------------5-------| 
Bb|------------------------------------5--------5-------| 
Gb|-2---4p2h4/5-----5----5-4-----7-------7--7-----------| 
Db|-2------------xx-5----5-5--xx-7----------7-----------| 
Ab|-0---------------3----3-2-----5----------5-------x\--| 
Eb|-----------------------------------------6-----------| 

Eb|---------------------------------------------5---/10-------| 
Bb|------------------------------------5--------5---/10-------| 
Gb|-2---4p2h4/5-----5----5-4-----7-------7--7-----------------| 
Db|-2------------xx-5----5-5--xx-7----------7-----------------| 
Ab|-0---------------3----3-2-----5----------5-------------x\--| 
Eb|-----------------------------------------6-----------------| 
 
  

top 5 | tnt
top
Outras músicas do artista letras do(a) TNT
Top cifras »Top artistas »
Petaxxon Comunicação Online
Cifras.com.br - Melhor e mais completo site de cifras e tablaturas do Brasil
Mais de 1 milhão de acordes de músicas cadastradas desde 2003
As informações contidas no nosso site são colaborações de seus usuários e podem conter erros, sendo assim, não nos responsabilizamos sobre nenhuma destas.
close
menos
mais
close
Cor dos acordes:

Cor da letra:

 

save
close
close
 
redimensionar