Cifras e Tablaturas
Tom Petty

Tom Petty

Dreamville

Cifras Cancelar Versão de Impressão
cifras

Tom Petty - Dreamville

fixar na tela  
Exibindo: vídeo-aula ver clipes redimensionar
  
 Intro 
  Q=82 
  N.C. 
 4/4 
  Gtr III (Piano arr. for Gtr.) 
  Q.   E +Q   Q    Q.   E +Q   Q    Q.   E +Q   Q    Q.   E +Q   Q 
|----------------|-3----3-(3)--3--|----------------|----------------|| 
|-3----3-(3)--3--|----------------|-3----3-(3)--3--|-3----3-(3)--3--|| 
|----------------|-5----5-(5)--5--|----------------|----------------|| 
|-5----5-(5)--5--|----------------|-5----2-(2)--2--|-5----5-(5)--5--|| 
|----------------|----------------|----------------|----------------|| 
|----------------|----------------|----------------|----------------|| 


   1st - 3rd Verses 
    $ 
    Em7               Am7               Dsus4   D         G 
    Gtr I (Ac. Gtr.) 
    E E E E E E E E   E E E E E E E E   E E E E E E E E   E E E E E E E E 
||--0-0-0-0-0-0-0-0-|-0-0-0-0-0-0-0-0-|-3-3-3-3-2-2-2-2-|-3-3-3-3-3-3-3-3--| 
||o-3-3-3-3-3-3-3-3-|-1-1-1-1-1-1-1-1-|-3-3-3-3-3-3-3-3-|-0-0-0-0-0-0-0-0--| 
||--0-0-0-0-0-0-0-0-|-0-0-0-0-0-0-0-0-|-2-2-2-2-2-2-2-2-|-0-0-0-0-0-0-0-0--| 
||--0-0-0-0-0-0-0-0-|-2-2-2-2-2-2-2-2-|-0-0-0-0-0-0-0-0-|-0-0-0-0-0-0-0-0--| 
||o-2-2-2-2-2-2-2-2-|-0-0-0-0-0-0-0-0-|-----------------|-2-2-2-2-2-2-2-2--| 
||--0-0-0-0-0-0-0-0-|-----------------|-----------------|-3-3-3-3-3-3-3-3--| 


  Em7               Am7               Dsus4   D         G 
  E E E E E E E E   E E E E E E E E   E E E E E E E E   E E E E E E E E 
|-0-0-0-0-0-0-0-0-|-0-0-0-0-0-0-0-0-|-3-3-3-3-2-2-2-2-|-3-3-3-3-3-3-3-3-|| 
|-3-3-3-3-3-3-3-3-|-1-1-1-1-1-1-1-1-|-3-3-3-3-3-3-3-3-|-0-0-0-0-0-0-0-0-|| 
|-0-0-0-0-0-0-0-0-|-0-0-0-0-0-0-0-0-|-2-2-2-2-2-2-2-2-|-0-0-0-0-0-0-0-0-|| 
|-0-0-0-0-0-0-0-0-|-2-2-2-2-2-2-2-2-|-0-0-0-0-0-0-0-0-|-0-0-0-0-0-0-0-0-|| 
|-2-2-2-2-2-2-2-2-|-0-0-0-0-0-0-0-0-|-----------------|-2-2-2-2-2-2-2-2-|| 
|-0-0-0-0-0-0-0-0-|-----------------|-----------------|-3-3-3-3-3-3-3-3-|| 


 Chorus 
  F       C           F       C 
  E E E E  E  E E E   E E E E  E  E E E 
|-1-1-1-1--0--0-0-0-|-1-1-1-1--0--0-0-0-| 
|-1-1-1-1--1--1-1-1-|-1-1-1-1--1--1-1-1-| 
|-2-2-2-2--0--0-0-0-|-2-2-2-2--0--0-0-0-| 
|-3-3-3-3--2--2-2-2-|-3-3-3-3--2--2-2-2-| 
|-3-3-3-3--3--3-3-3-|-3-3-3-3--3--3-3-3-| 
|-1-1-1-1-----------|-1-1-1-1-----------| 
| 
| Gtr II (El. 12-string Gtr.) 
| E E E E +H          E E E E +H 
|-----0-------------|-----0-------------| 
|-------1-(1)-------|-------1-(1)-------| 
|-2-0---------------|-2-0---------------| 
|-------------------|-------------------| 
|-------------------|-------------------| 
|-------------------|-------------------| 


                                 To Coda 
  F       C           F       C 
  E E E E  E  E E E   E E E E  E  E E E 
|-1-1-1-1--0--0-0-0-|-1-1-1-1--0--0-0-0--| 
|-1-1-1-1--1--1-1-1-|-1-1-1-1--1--1-1-1--| 
|-2-2-2-2--0--0-0-0-|-2-2-2-2--0--0-0-0--| 
|-3-3-3-3--2--2-2-2-|-3-3-3-3--2--2-2-2--| 
|-3-3-3-3--3--3-3-3-|-3-3-3-3--3--3-3-3--| 
|-1-1-1-1-----------|-1-1-1-1------------| 
| 
| E E E E +H          E E E E +H 
|-----0-------------|-----0--------------| 
|-------1-(1)-------|-------1-(1)--------| 
|-2-0---------------|-2-0----------------| 
|-------------------|--------------------| 
|-------------------|--------------------| 
|-------------------|--------------------| 


  1.                                   2. 
  D                                     D 
  E E E E E E E E   E E E E E E E E     E E E E E E E E   E E E E E E E E 
|-2-2-2-2-2-2-2-2-|-2-2-2-2-2-2-2-2--||-2-2-2-2-2-2-2-2-|-2-2-2-2-2-2-2-2-|| 
|-3-3-3-3-3-3-3-3-|-3-3-3-3-3-3-3-3-o||-3-3-3-3-3-3-3-3-|-3-3-3-3-3-3-3-3-|| 
|-2-2-2-2-2-2-2-2-|-2-2-2-2-2-2-2-2--||-2-2-2-2-2-2-2-2-|-2-2-2-2-2-2-2-2-|| 
|-0-0-0-0-0-0-0-0-|-0-0-0-0-0-0-0-0--||-0-0-0-0-0-0-0-0-|-0-0-0-0-0-0-0-0-|| 
|-----------------|-----------------o||-----------------|-----------------|| 
|-----------------|------------------||-----------------|-----------------|| 


 Interlude 
  Bb      F         Bb      F         Bb      F         G 
  E E E E E E E E   E E E E E E E E   E E E E E E E E   E E E E E E E E 
|-1-1-1-1-1-1-1-1-|-1-1-1-1-1-1-1-1-|-1-1-1-1-1-1-1-1-|-3-3-3-3-3-3-3-3-| 
|-3-3-3-3-1-1-1-1-|-3-3-3-3-1-1-1-1-|-3-3-3-3-1-1-1-1-|-0-0-0-0-0-0-0-0-| 
|-3-3-3-3-2-2-2-2-|-3-3-3-3-2-2-2-2-|-3-3-3-3-2-2-2-2-|-0-0-0-0-0-0-0-0-| 
|-3-3-3-3-3-3-3-3-|-3-3-3-3-3-3-3-3-|-3-3-3-3-3-3-3-3-|-0-0-0-0-0-0-0-0-| 
|-1-1-1-1-3-3-3-3-|-1-1-1-1-3-3-3-3-|-1-1-1-1-3-3-3-3-|-2-2-2-2-2-2-2-2-| 
|---------1-1-1-1-|---------1-1-1-1-|---------1-1-1-1-|-3-3-3-3-3-3-3-3-| 


  Bb      F         Bb      F         Bb      F         G 
  E E E E E E E E   E E E E E E E E   E E E E E E E E   E E E E E E E E 
|-1-1-1-1-1-1-1-1-|-1-1-1-1-1-1-1-1-|-1-1-1-1-1-1-1-1-|-3-3-3-3-3-3-3-3-| 
|-3-3-3-3-1-1-1-1-|-3-3-3-3-1-1-1-1-|-3-3-3-3-1-1-1-1-|-0-0-0-0-0-0-0-0-| 
|-3-3-3-3-2-2-2-2-|-3-3-3-3-2-2-2-2-|-3-3-3-3-2-2-2-2-|-0-0-0-0-0-0-0-0-| 
|-3-3-3-3-3-3-3-3-|-3-3-3-3-3-3-3-3-|-3-3-3-3-3-3-3-3-|-0-0-0-0-0-0-0-0-| 
|-1-1-1-1-3-3-3-3-|-1-1-1-1-3-3-3-3-|-1-1-1-1-3-3-3-3-|-2-2-2-2-2-2-2-2-| 
|---------1-1-1-1-|---------1-1-1-1-|---------1-1-1-1-|-3-3-3-3-3-3-3-3-| 


                                                        Chorus 
                                                         F       C 
  E E E E E E E E   E E E E E E E E   E E E E E E E E    E E E E E E E E 
|-3-3-3-3-3-3-3-3-|-3-3-3-3-3-3-3-3-|-3-3-3-3-3-3-3-3-||-1-1-1-1-0-0-0-0-| 
|-0-0-0-0-0-0-0-0-|-0-0-0-0-0-0-0-0-|-0-0-0-0-0-0-0-0-||-1-1-1-1-1-1-1-1-| 
|-0-0-0-0-0-0-0-0-|-0-0-0-0-0-0-0-0-|-0-0-0-0-0-0-0-0-||-2-2-2-2-0-0-0-0-| 
|-0-0-0-0-0-0-0-0-|-0-0-0-0-0-0-0-0-|-0-0-0-0-0-0-0-0-||-3-3-3-3-2-2-2-2-| 
|-2-2-2-2-2-2-2-2-|-2-2-2-2-2-2-2-2-|-2-2-2-2-2-2-2-2-||-3-3-3-3-3-3-3-3-| 
|-3-3-3-3-3-3-3-3-|-3-3-3-3-3-3-3-3-|-3-3-3-3-3-3-3-3-||-1-1-1-1---------| 


  F       C         F       C         F       C 
  E E E E E E E E   E E E E E E E E   E E E E E E E E 
|-1-1-1-1-0-0-0-0-|-1-1-1-1-0-0-0-0-|-1-1-1-1-0-0-0-0-| 
|-1-1-1-1-1-1-1-1-|-1-1-1-1-1-1-1-1-|-1-1-1-1-1-1-1-1-| 
|-2-2-2-2-0-0-0-0-|-2-2-2-2-0-0-0-0-|-2-2-2-2-0-0-0-0-| 
|-3-3-3-3-2-2-2-2-|-3-3-3-3-2-2-2-2-|-3-3-3-3-2-2-2-2-| 
|-3-3-3-3-3-3-3-3-|-3-3-3-3-3-3-3-3-|-3-3-3-3-3-3-3-3-| 
|-1-1-1-1---------|-1-1-1-1---------|-1-1-1-1---------| 


                        D.S. al Coda 
  D 
  E E E E E E E E   E E E E E E E E 
|-2-2-2-2-2-2-2-2-|-2-2-2-2-2-2-2-2----|| 
|-3-3-3-3-3-3-3-3-|-3-3-3-3-3-3-3-3----|| 
|-2-2-2-2-2-2-2-2-|-2-2-2-2-2-2-2-2----|| 
|-0-0-0-0-0-0-0-0-|-0-0-0-0-0-0-0-0----|| 
|-----------------|--------------------|| 
|-----------------|--------------------|| 


  & 
  D                                       G                 F       C 
  E E E E  E  E E E   E E E E  E  E E E   E E E E E E E E   E E E E  E  E E E 
|-2-2-2-2--2--2-2-2-|-2-2-2-2--2--2-2-2-|-3-3-3-3-3-3-3-3-|-1-1-1-1--0--0-0-0-| 
|-3-3-3-3--3--3-3-3-|-3-3-3-3--3--3-3-3-|-0-0-0-0-0-0-0-0-|-1-1-1-1--1--1-1-1-| 
|-2-2-2-2--2--2-2-2-|-2-2-2-2--2--2-2-2-|-0-0-0-0-0-0-0-0-|-2-2-2-2--0--0-0-0-| 
|-0-0-0-0--0--0-0-0-|-0-0-0-0--0--0-0-0-|-0-0-0-0-0-0-0-0-|-3-3-3-3--2--2-2-2-| 
|-------------------|-------------------|-2-2-2-2-2-2-2-2-|-3-3-3-3--3--3-3-3-| 
|-------------------|-------------------|-3-3-3-3-3-3-3-3-|-1-1-1-1-----------| 
| 
| Gtr II 
| E E E E +H          E E E E +H          W                 E E E E +H 
|-2---0-------------|-----0-------------|-----------------|-----0-------------| 
|---3---3-(3)-------|-------3-(3)-------|-----------------|-------1-(1)-------| 
|-------------------|-0-2---------------|-----------------|-2-0---------------| 
|-------------------|-------------------|-----------------|-------------------| 
|-------------------|-------------------|-----------------|-------------------| 
|-------------------|-------------------|-----------------|-------------------| 


  F       C           F       C 
  E E E E  E  E E E   E E E E  E  E E E 
|-1-1-1-1--0--0-0-0-|-1-1-1-1--0--0-0-0-| 
|-1-1-1-1--1--1-1-1-|-1-1-1-1--1--1-1-1-| 
|-2-2-2-2--0--0-0-0-|-2-2-2-2--0--0-0-0-| 
|-3-3-3-3--2--2-2-2-|-3-3-3-3--2--2-2-2-| 
|-3-3-3-3--3--3-3-3-|-3-3-3-3--3--3-3-3-| 
|-1-1-1-1-----------|-1-1-1-1-----------| 
| 
| E E E E +H          E E E E +H 
|-----0-------------|-----0-------------| 
|-------1-(1)-------|-------1-(1)-------| 
|-2-0---------------|-2-0---------------| 
|-------------------|-------------------| 
|-------------------|-------------------| 
|-------------------|-------------------| 


  F       C           D 
  E E E E  E  E E E   E E E E  E  E E E 
|-1-1-1-1--0--0-0-0-|-2-2-2-2--2--2-2-2-| 
|-1-1-1-1--1--1-1-1-|-3-3-3-3--3--3-3-3-| 
|-2-2-2-2--0--0-0-0-|-2-2-2-2--2--2-2-2-| 
|-3-3-3-3--2--2-2-2-|-0-0-0-0--0--0-0-0-| 
|-3-3-3-3--3--3-3-3-|-------------------| 
|-1-1-1-1-----------|-------------------| 
| 
| E E E E +H          E E E E +H 
|-----0-------------|-2---0-------------| 
|-------1-(1)-------|---3---3-(3)-------| 
|-2-0---------------|-------------------| 
|-------------------|-------------------| 
|-------------------|-------------------| 
|-------------------|-------------------| 


  Dsus4   D                               Dsus4 D 
  E E E E  E  E E E   E E E E  E  E E E   E E E E +H       +W 
|-3-3-3-3--2--2-2-2-|-2-2-2-2--2--2-2-2-|-3-3-3-2-(2)----|-(2)----*| 
|-3-3-3-3--3--3-3-3-|-3-3-3-3--3--3-3-3-|-3-3-3-3-(3)----|-(3)----*| 
|-2-2-2-2--2--2-2-2-|-2-2-2-2--2--2-2-2-|-2-2-2-2-(2)----|-(2)----*| 
|-0-0-0-0--0--0-0-0-|-0-0-0-0--0--0-0-0-|-0-0-0-0-(0)----|-(0)----*| 
|-------------------|-------------------|----------------|--------*| 
|-------------------|-------------------|----------------|--------*| 
| 
| E E E E +H          E E E E +H          E E E E +H       +W 
|-----0-------------|-2---0-------------|-----0----------|--------*| 
|-------3-(3)-------|---3---3-(3)-------|-------3-(3)----|-(3)----*| 
|-0-2---------------|-------------------|-0-2------------|--------*| 
|-------------------|-------------------|----------------|--------*| 
|-------------------|-------------------|----------------|--------*| 
|-------------------|-------------------|----------------|--------*| 

 
  

cifra enviadasem correções
enviado porenviada por:adalgomes
top 5 | tom petty
top rock'n roll
Outras músicas do artista letras do(a) Tom Petty
Top cifras »Top artistas »
Petaxxon Comunicação Online
Cifras.com.br - Melhor e mais completo site de cifras e tablaturas do Brasil
Mais de 1 milhão de acordes de músicas cadastradas desde 2003
As informações contidas no nosso site são colaborações de seus usuários e podem conter erros, sendo assim, não nos responsabilizamos sobre nenhuma destas.
close
menos
mais
close
Cor dos acordes:

Cor da letra:

 

save
close
close
 
redimensionar