Cifras e Tablaturas
Tonight Alive

Tonight Alive

Crack My Heart

Cifras Cancelar Versão de Impressão

Tonight Alive - Crack My Heart

Tom:

  			
verse 1 
Guitar 1 (entire verse) 
  w/ delay 
e|-----------------------------------------------------------------------------------------------| 
B|-----------------------------------------------------------------------------------------------| 
G|-----------------------------------------------------------------------------------------------| 
D|--------7----------------7-----------------------8---------------------------------------------| 
A|----9-----9---9------9-----9---9-----------10------10----10-------5---7--5---5-----------------| 
D|--0---0-----0------0---0-----0----------8-----8-------8---------5---5------5-------------------| 

Guitar 2 -- comes in at "But I have not prayed..." 
e|-----------------------------------------------------------------------------------------------| 
B|-----------------------------------------------------------------------------------------------| 
G|-----------------------------------------------------------------------------------------------| 
D|-----------------------------------------------------------------------------------------------| 
A|--000000000000000000000000000000--------8888888888888888888-----555555555555555----------------| 
D|--000000000000000000000000000000--------8888888888888888888-----555555555555555----------------| 
    ..............................        ...................     ............... 

e|-----------------------------------------------------------------------------------------------| 
B|-----------------------------------------------------------------------------------------------| 
G|-----------------------------------------------------------------------------------------------| 
D|-----------------------------------------------------------------------------------------------| 
A|--000000000000000000000000000000--------8888888888888888888-----555555555555555----------------| 
D|--000000000000000000000000000000--------8888888888888888888-----555555555555555----------------| 
    ..............................        ...................     ............... 

  "I was unmoveable" 
e|-----------------------------------------------------------------------------------------------| 
B|-----------------------------------------------------------------------------------------------| 
G|-----------------------------------------------------------------------------------------------| 
D|-----------------------------------------------------------------------------------------------| 
A|--88888888--1010101010101010-------------------------------------------------------------------| 
D|--88888888--1010101010101010-------------------------------------------------------------------| 
    ........  ........... 

Chorus 1 
Guitar 1  
e|-----------------------------------------------------------------------------------------------| 
B|-----------------------------------------------------------------------------------------------| 
G|-----------------------------------------------------------------------------------------------| 
D|--00000000000-------------888888888-------------------1010101010101010-------------------------| 
A|--00000000000-------------888888888-------------------1010101010101010-------------------------| 
D|--00000000000-------------888888888-------------------1010101010101010-------------------------| 
   "Crack my heart open     with your bare hands  watch me bloom"     

Guitar 2  
e|-----------------------------------------------------------------------------------------------| 
B|-----------------------------------------------------------------------------------------------| 
G|--11111111--s--7-7-7-7-7-7--s--1010101010--s--1212121212---------------------------------------| 
D|-----------------------------------------------------------------------------------------------| 
A|--9-9-9-9---s--5-5-5-5-5-5--s--8-8-8-8-8---s--1010101010---------------------------------------| 
D|-----------------------------------------------------------------------------------------------| 

Guitar 1  
e|-----------------------------------------------------------------------------------------------| 
B|-----------------------------------------------------------------------------------------------| 
G|-----------------------------------------------------------------------------------------------| 
D|--00000000000-------------888888888----------------1010101010101010----------------------------| 
A|--00000000000-------------888888888----------------1010101010101010----------------------------| 
D|--00000000000-------------888888888----------------1010101010101010----------------------------| 
    "Set my soul on fire    And I will    unfold     for you" 

Guitar 2  
e|-----------------------------------------------------------------------------------------------| 
B|-----------------------------------------------------------------------------------------------| 
G|--11111111--s--7-7-7-7-7-7--s--1010101010--s--1212121212---------------------------------------| 
D|-----------------------------------------------------------------------------------------------| 
A|--9-9-9-9---s--5-5-5-5-5-5--s--8-8-8-8-8---s--1010101010---------------------------------------| 
D|-----------------------------------------------------------------------------------------------| 

Guitar 1  
e|-----------------------------------------------------------------------------------------------| 
B|-----------------------------------------------------------------------------------------------| 
G|-----------------------------------------------------------------------------------------------| 
D|--0000---0-00--00----8888--------8-1010-------10101010-----------------------------------------| 
A|--0000---0-00--00----8888--------8-1010-------10101010-----------------------------------------| 
D|--0000---0-00--00----8888--------8-1010-------10101010-----------------------------------------| 
        "I wanna feel  Wanna heal  Wanna break  Wanna change..."   

Guitar 2 - these line up with Guitar 1 hits 
e|-----------------------------------------------------------------------------------------------| 
B|-----------------------------------------------------------------------------------------------| 
G|--11111111--11-1111--1111---7777---7--1010------10101010---------------------------------------| 
D|-----------------------------------------------------------------------------------------------| 
A|--9-9-9-9---9--9-9---9-9----5555---5--8-8-------8-8-8-8----------------------------------------| 
D|-----------------------------------------------------------------------------------------------|       

Guitar 3 
e|-----------------------------------------------------------------------------------------------| 
B|-----------------------------------------------------------------------------------------------| 
G|---77777777777777---1010101010101010---1212121212----------------------------------------------| 
D|-----------------------------------------------------------------------------------------------| 
A|-----------------------------------------------------------------------------------------------| 
D|-----------------------------------------------------------------------------------------------|  

Guitar 1  
e|-----------------------------------------------------------------------------------------------| 
B|-----------------------------------------------------------------------------------------------| 
G|-----------------------------------------------------------------------------------------------| 
D|--0000---------0-00-------00---------8888--------8-1010---------101010-------------------------| 
A|--0000---------0-00-------00---------8888--------8-1010---------101010-------------------------| 
D|--0000---------0-00-------00---------8888--------8-1010---------101010-------------------------| 
    "Wanna live  Wanna feel Wanna heal Wanna break  Wanna change  Wanna live 

Guitar 2 - different this time! (still line up with Guitar 1 hits) 
e|-----------------------------------------------------------------------------------------------| 
B|-----------------------------------------------------------------------------------------------| 
B|--12121212----11-77-------77---------7777--------5-1010---------101010-------------------------| 
D|-----------------------------------------------------------------------------------------------| 
A|--10101010----9--55-------55---------5555--------7-8-8----------8-8-8--------------------------| 
D|-----------------------------------------------------------------------------------------------| 

Guitar 3 
e|-----------------------------------------------------------------------------------------------| 
B|-----------------------------------------------------------------------------------------------| 
G|--11-11-11-11-11-11-11---7777777---101010101010101010101010101010------------------------------| 
D|-----------------------------------------------------------------------------------------------| 
A|-----------------------------------------------------------------------------------------------| 
D|-----------------------------------------------------------------------------------------------|      

Instrumental 
e|-----------------------------------------------------------------------------------------------| 
B|-----------------------------------------------------------------------------------------------| 
G|--------------2h3p2----------------------------------------------------------------------------| 
D|----0-2s3p0---------2s3p0----------------------------------------------------------------------| 
A|---0-------------------------------------------------------------------------------------------| 
D|--0--------------------------------------------------------------------------------------------| 

verse 2 
Guitar 1 (entire verse) 
  w/ delay 
e|-----------------------------------------------------------------------------------------------| 
B|-----------------------------------------------------------------------------------------------| 
G|-----------------------------------------------------------------------------------------------| 
D|--------7----------------7-----------------------8---------------------------------------------| 
A|----9-----9---9------9-----9---9-----------10------10----10-------5---7--5---5-----------------| 
D|--0---0-----0------0---0-----0----------8-----8-------8---------5---5------5-------------------| 

Guitar 2 -- comes in at "...surrender, I fill up..." 
e|-----------------------------------------------------------------------------------------------| 
B|-----------------------------------------------------------------------------------------------| 
G|-----------------------------------------------------------------------------------------------| 
D|-----------------------------------------------------------------------------------------------| 
A|--000000000000000000000000000000--------8888888888888888888-----555555555555555----------------| 
D|--000000000000000000000000000000--------8888888888888888888-----555555555555555----------------| 
    ..............................        ...................     ............... 

e|-----------------------------------------------------------------------------------------------| 
B|-----------------------------------------------------------------------------------------------| 
G|-----------------------------------------------------------------------------------------------| 
D|-----------------------------------------------------------------------------------------------| 
A|--000000000000000000000000000000--------8888888888888888888-----555555555555555----------------| 
D|--000000000000000000000000000000--------8888888888888888888-----555555555555555----------------| 
    ..............................        ...................     ............... 

  "It may be turbulent" 
e|-----------------------------------------------------------------------------------------------| 
B|-----------------------------------------------------------------------------------------------| 
G|-----------------------------------------------------------------------------------------------| 
D|-----------------------------------------------------------------------------------------------| 
A|--88888888--1010101010101010-------------------------------------------------------------------| 
D|--88888888--1010101010101010-------------------------------------------------------------------| 
    ........  ......... 

Chorus 2 
Guitar 1  
e|-----------------------------------------------------------------------------------------------| 
B|-----------------------------------------------------------------------------------------------| 
G|-----------------------------------------------------------------------------------------------| 
D|--00000000000-------------888888888-------------------1010101010101010-------------------------| 
A|--00000000000-------------888888888-------------------1010101010101010-------------------------| 
D|--00000000000-------------888888888-------------------1010101010101010-------------------------| 
   "Crack my heart open     with your bare hands  watch me bloom"   

Guitar 2  
e|-----------------------------------------------------------------------------------------------| 
B|-----------------------------------------------------------------------------------------------| 
G|--11111111--s--7-7-7-7-7-7--s--1010101010--s--1212121212---------------------------------------| 
D|-----------------------------------------------------------------------------------------------| 
A|--9-9-9-9---s--5-5-5-5-5-5--s--8-8-8-8-8---s--1010101010---------------------------------------| 
D|-----------------------------------------------------------------------------------------------| 

Guitar 1  
e|-----------------------------------------------------------------------------------------------| 
B|-----------------------------------------------------------------------------------------------| 
G|-----------------------------------------------------------------------------------------------| 
D|--00000000000-------------888888888----------------1010101010101010----------------------------| 
A|--00000000000-------------888888888----------------1010101010101010----------------------------| 
D|--00000000000-------------888888888----------------1010101010101010----------------------------| 
    "Set my soul on fire   And I will    unfold      for you" 

Guitar 2  
e|-----------------------------------------------------------------------------------------------| 
B|-----------------------------------------------------------------------------------------------| 
G|--11111111--s--7-7-7-7-7-7--s--1010101010--s--1212121212---------------------------------------| 
D|-----------------------------------------------------------------------------------------------| 
A|--9-9-9-9---s--5-5-5-5-5-5--s--8-8-8-8-8---s--1010101010---------------------------------------| 
D|-----------------------------------------------------------------------------------------------| 

Guitar 1  
e|-----------------------------------------------------------------------------------------------| 
B|-----------------------------------------------------------------------------------------------| 
G|-----------------------------------------------------------------------------------------------| 
D|--0000---0-00--00----8888--------8-1010-------10101010-----------------------------------------| 
A|--0000---0-00--00----8888--------8-1010-------10101010-----------------------------------------| 
D|--0000---0-00--00----8888--------8-1010-------10101010-----------------------------------------| 
        "I wanna feel  Wanna heal  Wanna break  Wanna change..."   

Guitar 2 - these line up with Guitar 1 hits 
e|-----------------------------------------------------------------------------------------------| 
B|-----------------------------------------------------------------------------------------------| 
G|--11111111--11-1111--1111---7777---7--1010------10101010---------------------------------------| 
D|-----------------------------------------------------------------------------------------------| 
A|--9-9-9-9---9--9-9---9-9----5555---5--8-8-------8-8-8-8----------------------------------------| 
D|-----------------------------------------------------------------------------------------------|       

Guitar 3 
e|-----------------------------------------------------------------------------------------------| 
B|-----------------------------------------------------------------------------------------------| 
G|---77777777777777---1010101010101010---1212121212----------------------------------------------| 
D|-----------------------------------------------------------------------------------------------| 
A|-----------------------------------------------------------------------------------------------| 
D|-----------------------------------------------------------------------------------------------|  

Guitar 1  
e|-----------------------------------------------------------------------------------------------| 
B|-----------------------------------------------------------------------------------------------| 
G|-----------------------------------------------------------------------------------------------| 
D|--0000---------0-00-------00---------8888--------8-1010---------101010-------------------------| 
A|--0000---------0-00-------00---------8888--------8-1010---------101010-------------------------| 
D|--0000---------0-00-------00---------8888--------8-1010---------101010-------------------------| 
    "Wanna live  Wanna feel Wanna heal Wanna break  Wanna change  Wanna live 

Guitar 2 - different this time! (still line up with Guitar 1 hits) 
e|-----------------------------------------------------------------------------------------------| 
B|-----------------------------------------------------------------------------------------------| 
B|--12121212----11-77-------77---------7777--------5-1010---------101010-------------------------| 
D|-----------------------------------------------------------------------------------------------| 
A|--10101010----9--55-------55---------5555--------7-8-8----------8-8-8--------------------------| 
D|-----------------------------------------------------------------------------------------------| 

Guitar 3 
e|-----------------------------------------------------------------------------------------------| 
B|-----------------------------------------------------------------------------------------------| 
G|--11-11-11-11-11-11-11---7777777---1010101010101010101010101010--------------------------------| 
D|-----------------------------------------------------------------------------------------------| 
A|-----------------------------------------------------------------------------------------------| 
D|-----------------------------------------------------------------------------------------------| 

BRIDGE Part 1  
Timing is tough on this part. Slow the song down to get it right! 
Guitar 1 (4 times - leaving off the 1s3s1p0 on the 4th time) 
e|-----------------------------------------------------------------------------------------------| 
B|-----------------------------------------------------------------------------------------------| 
G|--------------2h3p2----------------------------------------------------------------------------|  
D|----0-2s3p0---------2s3p0----------------------------------------------------------------------| 
A|---0---------------------1s3s1p0---------------------------------------------------------------| 
D|--0--------------------------------------------------------------------------------------------| 

BRIDGE Part 2 
Guitar 1  
e|-----------------------------------------------------------------------------------------------| 
B|-----------------------------------------------------------------------------------------------| 
G|-----------------------------------------------------------------------------------------------|  
D|-----------------------------------------------------------------------------------------------| 
A|---------------------------------------------------------------------------------5-3-2-0-------| 
D|--0-10-12-0-8-10-0-7-8-0-5-7--3h5p3p0-2h3p2p0-------0-10-12-0-8-10-0-7-8-0-5-7---5-3-2-0-------| 
                                                                                   . . . . 

Guitar 2 - may not be as many notes could also hit and add vibrato to make the note ring loudly 
e|-----------------------------------------------------------------------------------------------| 
B|-----------------------------------------------------------------------------------------------| 
G|--7777777777777777777777777777777777777777777-------101010101010101010101010101010101010-------|  
D|-----------------------------------------------------------------------------------------------| 
A|-----------------------------------------------------------------------------------------------| 
D|-----------------------------------------------------------------------------------------------| 

Guitar 1  
e|-----------------------------------------------------------------------------------------------| 
B|-----------------------------------------------------------------------------------------------| 
G|-----------------------------------------------------------------------------------------------|  
D|-----------------------------------------------------------------------------------------------| 
A|--0-10-12-0-8-10-0-7-8-0-5-7--3h5p3p0-2h3p2p0-------0-10-12-0-8-10-0-7-8-0-5-7---5-3-2-3-0-----| 
D|--0-10-12-0-8-10-0-7-8-0-5-7--3h5p3p0-2h3p2p0-------0-10-12-0-8-10-0-7-8-0-5-7---5-3-2-3-0-----| 
                                                                                   . . . . . 
Guitar 2 - may not be as many notes could also hit and add vibrato to make the note ring loudly 
e|-----------------------------------------------------------------------------------------------| 
B|----------------------------------------------------151515151515151515151515151515151515-------| 
G|--141414141414141414141414141414141414141414---------------------------------------------------|  
D|-----------------------------------------------------------------------------------------------| 
A|-----------------------------------------------------------------------------------------------| 
D|-----------------------------------------------------------------------------------------------| 

Chorus 3 
Guitar 1  
e|-----------------------------------------------------------------------------------------------| 
B|-----------------------------------------------------------------------------------------------| 
G|-----------------------------------------------------------------------------------------------| 
D|--------------------------888888888-------------------1010101010101010-------------------------| 
A|--------------------------888888888-------------------1010101010101010-------------------------| 
D|--------------------------888888888-------------------1010101010101010-------------------------| 
   "Crack my heart open     with your bare hands  watch me bloom"      

Guitar 2  
e|-----------------------------------------------------------------------------------------------| 
B|-----------------------------------------------------------------------------------------------| 
G|--------------------------1010101010--s------------1212121212----------------------------------| 
D|-----------------------------------------------------------------------------------------------| 
A|--------------------------8-8-8-8-8---s------------1010101010----------------------------------| 
D|-----------------------------------------------------------------------------------------------| 

Guitar 1  
e|-----------------------------------------------------------------------------------------------| 
B|-----------------------------------------------------------------------------------------------| 
G|-----------------------------------------------------------------------------------------------| 
D|--00000000000-------------888888888----------------1010101010101010----------------------------| 
A|--00000000000-------------888888888----------------1010101010101010----------------------------| 
D|--00000000000-------------888888888----------------1010101010101010----------------------------| 
    "Set my soul on fire    And I will    unfold     for you" 

Guitar 2 
e|-----------------------------------------------------------------------------------------------| 
B|-----------------------------------------------------------------------------------------------| 
G|--11111111--s--7-7-7-7-7-7--s--1010101010--s--1212121212---------------------------------------| 
D|-----------------------------------------------------------------------------------------------| 
A|--9-9-9-9---s--5-5-5-5-5-5--s--8-8-8-8-8---s--1010101010---------------------------------------| 
D|-----------------------------------------------------------------------------------------------| 

Guitar 1  
e|-----------------------------------------------------------------------------------------------| 
B|-----------------------------------------------------------------------------------------------| 
G|-----------------------------------------------------------------------------------------------| 
D|--0000---0-00--00----8888--------8-1010-------10101010-----------------------------------------| 
A|--0000---0-00--00----8888--------8-1010-------10101010-----------------------------------------| 
D|--0000---0-00--00----8888--------8-1010-------10101010-----------------------------------------| 
        "I wanna feel  Wanna heal  Wanna break  Wanna change..."   

Guitar 2 - these line up with Guitar 1 hits 
e|-----------------------------------------------------------------------------------------------| 
B|-----------------------------------------------------------------------------------------------| 
G|--11111111--11-1111--1111---7777---7--1010------10101010---------------------------------------| 
D|-----------------------------------------------------------------------------------------------| 
A|--9-9-9-9---9--9-9---9-9----5555---5--8-8-------8-8-8-8----------------------------------------| 
D|-----------------------------------------------------------------------------------------------|       

Guitar 3 
e|-----------------------------------------------------------------------------------------------| 
B|-----------------------------------------------------------------------------------------------| 
G|---77777777777777---1010101010101010---1212121212----------------------------------------------| 
D|-----------------------------------------------------------------------------------------------| 
A|-----------------------------------------------------------------------------------------------| 
D|-----------------------------------------------------------------------------------------------|  

Guitar 1  
e|-----------------------------------------------------------------------------------------------| 
B|-----------------------------------------------------------------------------------------------| 
G|-----------------------------------------------------------------------------------------------| 
D|--0000---------0-00-------00---------8888--------8-1010---------101010-------------------------| 
A|--0000---------0-00-------00---------8888--------8-1010---------101010-------------------------| 
D|--0000---------0-00-------00---------8888--------8-1010---------101010-------------------------| 
    "Wanna live  Wanna feel Wanna heal Wanna break  Wanna change  Wanna live 


Guitar 2 - different this time! (still line up with Guitar 1 hits) 
e|-----------------------------------------------------------------------------------------------| 
B|-----------------------------------------------------------------------------------------------| 
B|--12121212----11-77-------77---------7777--------5-1010---------101010-------------------------| 
D|-----------------------------------------------------------------------------------------------| 
A|--10101010----9--55-------55---------5555--------7-8-8----------8-8-8--------------------------| 
D|-----------------------------------------------------------------------------------------------| 

Guitar 3 
e|-----------------------------------------------------------------------------------------------| 
B|-----------------------------------------------------------------------------------------------| 
G|--11-11-11-11-11-11-11---7777777---1010101010101010101010101010--------------------------------| 
D|-----------------------------------------------------------------------------------------------| 
A|-----------------------------------------------------------------------------------------------| 
D|-----------------------------------------------------------------------------------------------| 

Outro 
Guitar 1  
e|-----------------------------------------------------------------------------------------------| 
B|-----------------------------------------------------------------------------------------------| 
G|-----------------------------------------------------------------------------------------------| 
D|--0000---0-00--00----8888--------8-1010-------10101010-----------------------------------------| 
A|--0000---0-00--00----8888--------8-1010-------10101010-----------------------------------------| 
D|--0000---0-00--00----8888--------8-1010-------10101010-----------------------------------------| 
           "ooo ooo ooo ooooooo oooo  ooo ooo ooo ooooooo oooo"   

Guitar 2 - these line up with Guitar 1 hits 
e|-----------------------------------------------------------------------------------------------| 
B|-----------------------------------------------------------------------------------------------| 
G|--11111111--11-1111--1111---7777---7--1010------10101010---------------------------------------| 
D|-----------------------------------------------------------------------------------------------| 
A|--9-9-9-9---9--9-9---9-9----5555---5--8-8-------8-8-8-8----------------------------------------| 
D|-----------------------------------------------------------------------------------------------|       

Guitar 3 
e|-----------------------------------------------------------------------------------------------| 
B|-----------------------------------------------------------------------------------------------| 
G|---77777777777777---1010101010101010---1212121212----------------------------------------------| 
D|-----------------------------------------------------------------------------------------------| 
A|-----------------------------------------------------------------------------------------------| 
D|-----------------------------------------------------------------------------------------------|  

Guitar 1  
e|-----------------------------------------------------------------------------------------------| 
B|-----------------------------------------------------------------------------------------------| 
G|-----------------------------------------------------------------------------------------------| 
D|--0000---------0-00-------00---------8888--------8-1010---------101010-------------------------| 
A|--0000---------0-00-------00---------8888--------8-1010---------101010-------------------------| 
D|--0000---------0-00-------00---------8888--------8-1010---------101010-------------------------| 
    "Wanna live  ooo ooo ooo ooooooo oooo ooo ooo ooo ooooooo ooo Wanna live" 


Guitar 2 - different this time! (still line up with Guitar 1 hits) 
e|-----------------------------------------------------------------------------------------------| 
B|-----------------------------------------------------------------------------------------------| 
B|--12121212----11-77-------77---------7777--------5-1010---------101010-------------------------| 
D|-----------------------------------------------------------------------------------------------| 
A|--10101010----9--55-------55---------5555--------7-8-8----------8-8-8--------------------------| 
D|-----------------------------------------------------------------------------------------------| 

Guitar 3 
e|-----------------------------------------------------------------------------------------------| 
B|-----------------------------------------------------------------------------------------------| 
G|--11-11-11-11-11-11-11---7777777---1010101010101010101010101010--------------------------------| 
D|-----------------------------------------------------------------------------------------------| 
A|-----------------------------------------------------------------------------------------------| 
D|-----------------------------------------------------------------------------------------------| 
                                  
************************************ 

| h  Hammer-on 
| p  Pull-off 
| .  palm mute 
| s  slide  

************************************ 
    	
fixar
fixar inscrever-se

enviado porenviado por: tercmoraes
cifra enviadaCorrigida por: sem correções
logo top cifrasComente
ico música do artistaMúsicas deste artista
ico curtiuCurtiu?
ico destaqueDestaque
Petaxxon Comunicação Online

Cifras.com.br - Melhor e mais completo site de cifras e tablaturas do Brasil Mais de 1 milhão de acordes de músicas cadastradas desde 2003
As informações contidas no nosso site são colaborações de seus usuários e podem conter erros, sendo assim, não nos responsabilizamos sobre nenhuma destas.

close
menos
mais
close
Cor dos acordes:

Cor da letra:

close
Alinhar acordes a direita Alinhar acordes a esquerda Alinhar acordes em baixo Alinhar acordes no topo
close
  Mostrar todos os acordes Esconder acordes muito fáceis Esconder acordes fáceis Esconder acordes intermediários
redimensionar
glossário