Cifras e Tablaturas
Tony Carreira

Tony Carreira

Mais Que Primeira Paixão

Cifras Cancelar Versão de Impressão Print

Tony Carreira - Mais Que Primeira Paixão

Tom:

  • 0:00 / 0:00
  			e: -------------------------------------------------------------------14-14--------- 
b: ----------------------------------------14-14-15-15-17-17------------------ 
g: 16-16-16-16-16-16-16-16-16-------------------------------------16-16 
d: ------------------------------------------------------------------------------------ 
a: ------------------------------------------------------------------------------------ 
e: ------------------------------------------------------------------------------------ 

e: 14----14----------------14------14--------------------------- 
b: ----------------------------------------------17----------17---- 
g: ----16----16-16---16------16------16------14-14-------- 
d:-------------------------------------------------------------------- 
a: ------------------------------------------------------------------- 
e: ------------------------------------------------------------------- 

e:  
b: 15-14-15-14-----14-------------- 
g: ------------------16-----16-14-16- 
d:----------------------------------------- 
a:----------------------------------------- 
e:----------------------------------------- 


o resto e mesma coisa max ñ fax a 1ª parte com a musica vao la
    	

enviado porenviado por: ruibap
cifra enviadaCorrigida por: sem correções
logo top cifrasComente
ico música do artistaMúsicas deste artista
ico curtiuCurtiu?
ico destaqueDestaque
Petaxxon Comunicação Online

Cifras.com.br - Melhor e mais completo site de cifras e tablaturas do Brasil Mais de 1 milhão de acordes de músicas cadastradas desde 2003
As informações contidas no nosso site são colaborações de seus usuários e podem conter erros, sendo assim, não nos responsabilizamos sobre nenhuma destas.

close
menos
mais
close
Cor dos acordes:

Cor da letra:

close
Alinhar acordes a direita Alinhar acordes a esquerda Alinhar acordes em baixo Alinhar acordes no topo
close
  Mostrar todos os acordes Esconder acordes muito fáceis Esconder acordes fáceis Esconder acordes intermediários
redimensionar
glossário