Cifras e Tablaturas
Turbo Fruits

Turbo Fruits

Volcano

Cifras Cancelar Versão de Impressão Print

Turbo Fruits - Volcano

Tom:

  • 0:00 / 0:00
  			

Intro 
e|-----------------|-----------------|-----------------|---------------------| 
B|-----------------|-----------------|-----------------|---------------------| 
G|-----------------|-----------------|-----------------|---------------------| 
D|-----------------|-----------------|-----------------|---------------------| 
A|-----------------|-5---------------|-----------------|-5-------------------| 
E|-5-7-7-7-7-7-7-7-|---7-7-7-7-7-7-7-|-5-7-7-7-7-7-7-7-|---------------------| 

e|-----------------|-----------------|-----------------|---------------------| 
B|-----------------|-----------------|-----------------|---------------------| 
G|-----------------|-----------------|-----------------|---------------------| 
D|-----------------|-----------------|-----------------|---------------------| 
A|-----------------|-5-7-7-5-5-5-----|-5-7-7-7-7-7-7-5-|-/9------------------| 
E|-5-7-7-7-7-7-7-7-|-------------7-7-|-----------------|---------------------| 

***REPEAT INTRO WITH INCREASED SPEED*** 

Verse 
e|-----------------|-----------------|-----------------|---------------------| 
B|-----------------|-----------------|-----------------|---------------------| 
G|-----------------|-----------------|-----------------|---------------------| 
D|-----------------|-----------------|-----------------|---------------------| 
A|-----------------|-5---------------|-----------------|-5-------------------| 
E|-5-7-7-7-7-7-7-7-|---7-7-7-7-7-7-7-|-5-7-7-7-7-7-7-7-|---------------------| 

e|-----------------|-----------------|-----------------|---------------------| 
B|-----------------|-----------------|-----------------|---------------------| 
G|-----------------|-----------------|-----------------|---------------------| 
D|-----------------|-----------------|-----------------|---------------------| 
A|-----------------|-5-7-7-5-5-5-----|-5-7-7-7-7-7-7-5-|-/9------------------| 
E|-5-7-7-7-7-7-7-7-|-------------7-7-|-----------------|---------------------| 

e|-----------------|-----------------|-----------------|---------------------| 
B|-----------------|-----------------|-----------------|---------------------| 
G|-----------------|-----------------|-----------------|---------------------| 
D|-----------------|-----------------|-----------------|---------------------| 
A|-----------------|-5---------------|-----------------|-5-------------------| 
E|-5-7-7-7-7-7-7-7-|---7-7-7-7-7-7-7-|-5-7-7-7-7-7-7-7-|---------------------| 

e|-----------------|-----------------|-----------------|---------------------| 
B|-----------------|-----------------|-----------------|---------------------| 
G|-----------------|-----------------|-----------------|---------------------| 
D|-----------------|-----------------|-----------------|---------------------| 
A|-----------------|-5-7-7-5-5-5-----|-5-7-7-7-7-7-7-5-|-/9------------------| 
E|-5-7-7-7-7-7-7-7-|-------------7-7-|-----------------|---------------------| 

Chorus 
e|-----------------|-----------------|-------------------------|----------------------| 
B|-----------------|-----------------|-------------------------|----------------------| 
G|-9-9-9-9-9-9-9-9-|-9-9-9-9-9-9-9-9-|-11-11-11-11-11-11-11-11-|-14-11-9-11--11-11-14-| 
D|-9-9-9-9-9-9-9-9-|-9-9-9-9-9-9-9-9-|-11-11-11-11-11-11-11-11-|-14-11-9-11--11-11-14-| 
A|-7-7-7-7-7-7-7-7-|-7-7-7-7-7-7-7-7-|-9--9--9--9--9--9--9--9--|-12-9--7-9---9--9--12-| 
E|-----------------|-----------------|-------------------------|----------------------| 

e|--------------------------|      |-------------------------| 
B|--------------------------|      |-------------------------| 
G|-(14)--16-16-16--16-16-14-|      |-(14)--16-16-16--16-16---| 
D|-(14)--16-16-16--16-16-14-| (x3) |-(14)--16-16-16--16-16---| 
A|-(12)--14-14-14--14-14-12-|      |-(12)--14-14-14--14-14---| 
E|--------------------------|      |-------------------------| 

***REPEAT VERSE*** 
***REPEAT Chorus*** 

Bridge 
e|--------------------------|      |-------------------------|      |--------------------|----------------| 
B|--------------------------|      |-------------------------|      |--------------------|----------------| 
G|-(14)--16-16-16--16-16-14-|      |-14-16-16-16-14-16-16-16-|      |-16-14--14-11--11-9-|-(9)-9-7--7--7--| 
D|-(14)--16-16-16--16-16-14-| (x4) |-14-16-16-16-14-16-16-16-| (x8) |-16-14--14-11--11-9-|-(9)-9-7--7--7--| 
A|-(12)--14-14-14--14-14-12-|      |-12-14-14-14-12-14-14-14-|      |-14-12--12-9---9--7-|-(7)-7-5--5--5--| 
E|--------------------------|      |-------------------------|      |--------------------|----------------| 

e|-------------------------|      |-----------------------------| 
B|-------------------------|      |-----------------------------| 
G|-14-16-16-16-14-16-16-16-|      |-16-14--14-11--11-9--9-7-7-7-| 
D|-14-16-16-16-14-16-16-16-| (x4) |-16-14--14-11--11-9--9-7-7-7-| 
A|-12-14-14-14-12-14-14-14-|      |-14-12--12-9---9--7--7-5-5-5-| 
E|-------------------------|      |-----------------------------| 


e|-------------------------|      |-----------------------------| 
B|-------------------------|      |-----------------------------| 
G|-14-16-16-16-14-16-16-16-|      |-16-14--14-11--11-9--9-7-7-7-| 
D|-14-16-16-16-14-16-16-16-| (x4) |-16-14--14-11--11-9--9-7-7-7-| 
A|-12-14-14-14-12-14-14-14-|      |-14-12--12-9---9--7--7-5-5-5-| 
E|-------------------------|      |-----------------------------| 


e|-------------------------|      |-----------------------------| 
B|-------------------------|      |-----------------------------| 
G|-14-16-16-16-14-16-16-16-|      |-16-14--14-11--11-9--9-7-7-7-| 
D|-14-16-16-16-14-16-16-16-| (x4) |-16-14--14-11--11-9--9-7-7-7-| 
A|-12-14-14-14-12-14-14-14-|      |-14-12--12-9---9--7--7-5-5-5-| 
E|-------------------------|      |-----------------------------| 

***PLAY OUTRO WITH DECREASED SPEED*** 

Outro 
e|-----------------|-----------------|-----------------|---------------------| 
B|-----------------|-----------------|-----------------|---------------------| 
G|-----------------|-----------------|-----------------|---------------------| 
D|-----------------|-----------------|-----------------|---------------------| 
A|-----------------|-5---------------|-----------------|-5-------------------| 
E|-5-7-7-7-7-7-7-7-|---7-7-7-7-7-7-7-|-5-7-7-7-7-7-7-7-|---------------------| 

I'd be happy if you'd rate and post a comment to this tab as feedback. Thanks, have a nice day! 
    	

enviado porenviado por: ubirbomfim
cifra enviadaCorrigida por: sem correções
logo top cifrasComente
ico música do artistaMúsicas deste artista
ico curtiuCurtiu?
ico destaqueDestaque
Petaxxon Comunicação Online

Cifras.com.br - Melhor e mais completo site de cifras e tablaturas do Brasil Mais de 1 milhão de acordes de músicas cadastradas desde 2003
As informações contidas no nosso site são colaborações de seus usuários e podem conter erros, sendo assim, não nos responsabilizamos sobre nenhuma destas.

close
menos
mais
close
Cor dos acordes:

Cor da letra:

close
Alinhar acordes a direita Alinhar acordes a esquerda Alinhar acordes em baixo Alinhar acordes no topo
close
  Mostrar todos os acordes Esconder acordes muito fáceis Esconder acordes fáceis Esconder acordes intermediários
redimensionar
glossário