Cifras e Tablaturas
Turnover

Turnover

Nightlight Girl

Cifras Cancelar Versão de Impressão
cifras

Turnover - Nightlight Girl

fixar na tela  
Exibindo: vídeo-aula ver clipes redimensionar
  
Intro 
(Guitar 1) 
E|----------5---------------------|----------5----------------| 
B|----------5--------3--3/5-\3----|----------5--------3--3/5--| 
G|-----5----5-----4------------5--|-----5----5-----4----------| 
D|--3-----3-3--5------------------|--3-----3-3--5-------------| 
A|--------------------------------|---------------------------| 
E|--------------------------------|---------------------------| 

(Guitar 2) 
E|--------------------------------------------| 
B|--8--------10------------------10--8--------| 
G|------9brb----------7-9---9brb--------7--9--| 
D|----------------10--------------------------| 
A|--------------------------------------------| 
E|--------------------------------------------| 

Verse 
(Guitar 1) 
E|----------5---------------------|----------5----------------| 
B|----------5--------3--3/5-\3----|----------5--------3--3/5--| 
G|-----5----5-----4------------5--|-----5----5-----4----------| 
D|--3-----3-3--5------------------|--3-----3-3--5-------------| 
A|--------------------------------|---------------------------| 
E|--------------------------------|---------------------------| 

(Guitar 2) 
E|--------------------------------------------| 
B|--8--------10------------------10--8--------| 
G|------9brb----------7-9---9brb--------7--9--| 
D|----------------10--------------------------| 
A|--------------------------------------------| 
E|--------------------------------------------| 
 | 
E|-----------------------------------------------| 
B|--8--------10---------------------10--8--------| 
G|------9brb------0---7-0---0--9brb--------7--9--| 
D|----------------10----10--10-------------------| 
A|-----------------------------------------------| 
E|-----------------------------------------------| 

Pre-Chorus 
(Guitar 1) 
E|---8------12---7---| 
B|---10-----12---8---| 
G|---9------12---9---| 
D|-------------------| 
A|-------------------| 
E|-------------------| 

(Guitar 2) 
E|----------------------------------|----------------------------| 
B|----8------8------8----8---8------|--8------8------8----8---8--| 
G|--9---9--9---9--9---9----9---7/9--|----9--9---9--9---9----9----| 
D|----------------------------------|----------------------------| 
A|----------------------------------|----------------------------| 
E|----------------------------------|----------------------------| 
    . . .  . . .  . . .  . . . .      . .  . . .  . . .  . . . 

Chorus 
(Guitar 1) 
E|--8----8-----8---|--12---12--7-7---7--| 
B|--10---10----10--|--12---12--8-8---8--| 
G|--9----9-----9---|--12---12--9-9---9--| 
D|-----------------|--------------------| 
A|-----------------|--------------------| 
E|-----------------|--------------------| 

(Guitar 2) 
E|---------------------------------|---------------------------------| 
B|---------------------8-----------|---------------------8-----------| 
G|--7/9--9--7\5---7/9-----9-7\5----|--7/9--9--7\5---7/9-----9-7\5-5--| 
D|------------------------------7--|---------------------------------| 
A|---------------------------------|---------------------------------| 
E|---------------------------------|---------------------------------| 

(Guitar 3, plays second half) 
E|----------------------------------|----------------------------| 
B|----8------8------8----8---8------|--8------8------8----8---8--| 
G|--9---9--9---9--9---9----9---7/9--|----9--9---9--9---9----9----| 
D|----------------------------------|----------------------------| 
A|----------------------------------|----------------------------| 
E|----------------------------------|----------------------------| 
    . . .  . . .  . . .  . . . .      . .  . . .  . . .  . . . 

Verse 
(Guitar 1) 
E|----------5---------------------|----------5----------------| 
B|----------5--------3--3/5-\3----|----------5--------3--3/5--| 
G|-----5----5-----4------------5--|-----5----5-----4----------| 
D|--3-----3-3--5------------------|--3-----3-3--5-------------| 
A|--------------------------------|---------------------------| 
E|--------------------------------|---------------------------| 

(Guitar 2) 
E|--------------------------------------------| 
B|--8--------10------------------10--8--------| 
G|------9brb----------7-9---9brb--------7--9--| 
D|----------------10--------------------------| 
A|--------------------------------------------| 
E|--------------------------------------------| 
 | 
E|-----------------------------------------------| 
B|--8--------10---------------------10--8--------| 
G|------9brb------0---7-0---0--9brb--------7--9--| 
D|----------------10----10--10-------------------| 
A|-----------------------------------------------| 
E|-----------------------------------------------| 

Chorus 
(Guitar 1) 
E|--8----8-----8---|--12---12--7-7---7--| 
B|--10---10----10--|--12---12--8-8---8--| 
G|--9----9-----9---|--12---12--9-9---9--| 
D|-----------------|--------------------| 
A|-----------------|--------------------| 
E|-----------------|--------------------| 

(Guitar 2) 
E|---------------------------------|---------------------------------| 
B|---------------------8-----------|---------------------8-----------| 
G|--7/9--9--7\5---7/9-----9-7\5----|--7/9--9--7\5---7/9-----9-7\5-5--| 
D|------------------------------7--|---------------------------------| 
A|---------------------------------|---------------------------------| 
E|---------------------------------|---------------------------------| 

(Guitar 3, plays second half) 
E|----------------------------------|----------------------------| 
B|----8------8------8----8---8------|--8------8------8----8---8--| 
G|--9---9--9---9--9---9----9---7/9--|----9--9---9--9---9----9----| 
D|----------------------------------|----------------------------| 
A|----------------------------------|----------------------------| 
E|----------------------------------|----------------------------| 
    . . .  . . .  . . .  . . . .      . .  . . .  . . .  . . . 

Post-Chorus 
(Guitar 1) 
E|---8------12---7---| 
B|---10-----12---8---| 
G|---9------12---9---| 
D|-------------------| 
A|-------------------| 
E|-------------------| 

(Guitar 2) 
E|---------------8--------8-------| 
B|------8-10---8-----8-10---10-8--| 
G|--9-----------------------------| 
D|--------------------------------| 
A|--------------------------------| 
E|--------------------------------| 
    .   . .    . .   . .  . .  . 

Outro 
(Guitar 1)                               Ending 
E|--8--------8---|--12---12--7-7---7--|---8~---| 
B|--10-------10--|--12---12--8-8---8--|---10~--| 
G|--9--------9---|--12---12--9-9---9--|---9~---| 
D|---------------|--------------------|--------| 
A|---------------|--------------------|--------| 
E|---------------|--------------------|--------| 

(Guitar 2)                         Ending 
E|---------------8--------8-------|-----| 
B|------8-10---8-----8-10---10-8--|-----| 
G|--9-----------------------------|--9--| 
D|--------------------------------|-----| 
A|--------------------------------|-----| 
E|--------------------------------|-----| 
    .   . .    . .   . .  . .  .     . 

(Guitar 3)                                                             Ending 
E|---------------------------------|---------------------------------|-------| 
B|---------------------8-----------|---------------------8-----------|-------| 
G|--7/9--9--7\5---7/9-----9-7\5----|--7/9--9--7\5---7/9-----9-7\5-5--|---5~--| 
D|------------------------------7--|---------------------------------|-------| 
A|---------------------------------|---------------------------------|-------| 
E|---------------------------------|---------------------------------|-------| 


************************* 

|  /    slide up 
|  \    slide down 
|  brb  bend release bend 
|  .    palm mute 
|  ~    held note 

************************* 
  

top 5 | turnover
top diversos
Outras músicas do artista letras do(a) Turnover
Top cifras »Top artistas »
Petaxxon Comunicação Online
Cifras.com.br - Melhor e mais completo site de cifras e tablaturas do Brasil
Mais de 1 milhão de acordes de músicas cadastradas desde 2003
As informações contidas no nosso site são colaborações de seus usuários e podem conter erros, sendo assim, não nos responsabilizamos sobre nenhuma destas.
close
menos
mais
close
Cor dos acordes:

Cor da letra:

 

save
close
close
 
redimensionar