Cifras e Tablaturas
Turnover

Turnover

What Got In The Way

Cifras Cancelar Versão de Impressão
cifras

Turnover - What Got In The Way

fixar na tela  
Exibindo: vídeo-aula ver clipes redimensionar

Tom:

  
Intro/verse 1 
e|---------------------------------------------------------------------------------------------------------| 
B|--------8---10---12---15---15/17---15---12----10---12---10---8---10---10/12---10---8---------------------| 
G|----9----------------------------------------------------------------------------------------------------| 
D|---------------------------------------------------------------------------------------------------------| 
A|---------------------------------------------------------------------------------------------------------| 
E|---------------------------------------------------------------------------------------------------------| 
       x6 

Pre-Chorus 
e|---------------------------------------------------------------------------------------------------------| 
B|-----------8--------------------8------------------------8----------8------------------------------------| 
G|----7--------------7-----7---------------7----9---7----------7------------7------------------------------| 
D|--------9-------9------------9--------9---------------9---------9------9---------------------------------| 
A|---------------------------------------------------------------------------------------------------------| 
E|---------------------------------------------------------------------------------------------------------| 

Chorus 
e|---------------------------------------------------------------------------------------------------------| 
B|---------------------------------------------------------------------------------------------------------| 
G|----9/11----9----5/7-----9-----------------9/11----9----5/7-----9-----------------9----------9-----------| 
D|-----------------------------------9------------------------------------------9------7h9-------7h9-------| 
A|---------------------------------------------------------------------------------------------------------| 
E|---------------------------------------------------------------------------------------------------------| 

e|---------------------------------------------------------------------------------------------------------| 
B|---------------------------------------------------------------------------------------------------------| 
G|----9/11----9----5/7-----9---------9---7-------9/11----9----5/7-----9-----------------9---------9--------| 
D|-----------------------------------9-----------------------------------------------9------7h9-------7h9--| 
A|---------------------------------------------------------------------------------------------------------| 
E|---------------------------------------------------------------------------------------------------------| 

verse 2 
e|---------------------------------------------------------------------------------------------------------| 
B|--------8---10---12---15---15/17---15---12----10---12---10---8---10---10/12---10---8---------------------| 
G|----9----------------------------------------------------------------------------------------------------| 
D|---------------------------------------------------------------------------------------------------------| 
A|---------------------------------------------------------------------------------------------------------| 
E|---------------------------------------------------------------------------------------------------------| 
    x4 

Pre-Chorus 
e|---------------------------------------------------------------------------------------------------------| 
B|-----------8--------------------8-------------------------8----------8-----------------------------------| 
G|----7--------------7-----7---------------7-----9---7-----------7------------7----------------------------| 
D|--------9-------9------------9--------9----------------9----------9------9-------------------------------| 
A|---------------------------------------------------------------------------------------------------------| 
E|---------------------------------------------------------------------------------------------------------| 
      x2 

Chorus 
e|---------------------------------------------------------------------------------------------------------| 
B|---------------------------------------------------------------------------------------------------------| 
G|----9/11----9----5/7-----9------------------9/11----9----5/7-----9---------------9---------9-------------| 
D|-----------------------------9---------------------------------------9------7h9-------7h9----------------| 
A|---------------------------------------------------------------------------------------------------------| 
E|---------------------------------------------------------------------------------------------------------| 

e|---------------------------------------------------------------------------------------------------------| 
B|---------------------------------------------------------------------------------------------------------| 
G|----9/11----9----5/7-----9--------9---7-----9/11----9----5/7-----9---------------9---------9-------------| 
D|-----------------------------9---------------------------------------9------7h9-------7h9----------------| 
A|---------------------------------------------------------------------------------------------------------| 
E|---------------------------------------------------------------------------------------------------------| 

Bridge 
e|---------------------------------------------------------------------------------------------------------| 
B|---------------------------------------------------------------------------------------------------------| 
G|----9---7-------7-----9---7-------7-----9---7-------7-----9---7-------7----------------------------------| 
D|------------9-----------------9-----------------9-----------------9--------------------------------------| 
A|---------------------------------------------------------------------------------------------------------| 
E|---------------------------------------------------------------------------------------------------------| 
      x3 

Outro 
e|---------------------------------------------------------------------------------------------------------| 
B|-----------8--------------------8-------------------------8----------8-----------------------------------| 
G|----7--------------7-----7---------------7-----9---7-----------7------------7----------------------------| 
D|--------9-------9------------9--------9----------------9----------9------9-------------------------------| 
A|---------------------------------------------------------------------------------------------------------| 
E|---------------------------------------------------------------------------------------------------------| 


************************* 

|  h   hammer-on 
|  /   slide up  

************************* 
  

top 5 | turnover
top diversos
Outras músicas do artista letras do(a) Turnover
Top cifras »Top artistas »
Petaxxon Comunicação Online
Cifras.com.br - Melhor e mais completo site de cifras e tablaturas do Brasil
Mais de 1 milhão de acordes de músicas cadastradas desde 2003
As informações contidas no nosso site são colaborações de seus usuários e podem conter erros, sendo assim, não nos responsabilizamos sobre nenhuma destas.
close
menos
mais
close
Cor dos acordes:

Cor da letra:

 

save
close
close
 
redimensionar