Cifras e Tablaturas
TV Cifras

TV Cifras

Luiza - Tom Jobim

Cifras Cancelar Versão de Impressão
cifras

TV Cifras - Luiza - Tom Jobim

fixar na tela  
Exibindo: vídeo-aula ver clipes redimensionar

Tom:

  
Ex 1 

---------------------------------------------------------------- 
-------3-----3---------3-----3--------2-----2--------2-----2---- 
----------0---------------3--------------2--------------2------- 
----4--------------2---------------0--------------0------------- 
--------------------------------2--------------0---------------- 
-3--------------2----------------------------------------------- 


---------------------------------------------------------------- 
-------3-----3-----3-------------------------------------------- 
----------0--------3-------------------------------------------- 
----4--------------2-------------------------------------------- 
---------------------------------------------------------------- 
-3--------------2----------------------------------------------- 


Ex 2 

---------------------------------------------------------------- 
-5--------3-----------5----------------------------------------- 
----------------2--------4-------------------------------------- 
-------4-----4-----------5-------------------------------------- 
----2----------------------------------------------------------- 
-------------------4-------------------------------------------- 


Ex 3 


---------------------------------------------------------------- 
----5--7--------------7--5--------5--4---------3---------------- 
-7-----------------7-----------4-------------3------------------ 
----------------5-----------5--------------2-------------------- 
-------------7-------------------------------------------------- 
----------0-----------------------------2----------------------- 


Ex4 

---------------------------------------------------------------- 
-2--1h2--3--2-----0--------------------------------------------- 
---------------------3------------------------------------------ 
---------------------4------------------------------------------ 
---------------2------------------------------------------------ 
---------------------------------------------------------------- 

Ex5 

---------------------------------------------------------------- 
-3-----------5-------------------------------------------------- 
-------1--------4----------------------------------------------- 
----4-----------2----------------------------------------------- 
---------------------------------------------------------------- 
----------4----------------------------------------------------- 


Ex6 

---------------------------------------------------------------- 
----5--7-----------7--5--4--5--7--8---------8--7--6--7--8--10--- 
-7---------------7------------------------8--------------------- 
---------------5------------------------7----------------------- 
-------------7-------------------------------------------------- 
----------0--------------------------7-------------------------- 


---------------------------------------------------------------- 
----------10---------10----------------------------------------- 
--------8----------7-------------------------------------------- 
------9----------9---------------------------------------------- 
----7---------0------------------------------------------------- 
-0-------------------------------------------------------------- 


Ex 7 


---------------------------5-----------------2------------------ 
----10-----8-------------5----8------------2-------------------- 
-----------------6-----6------------4----3---------------------- 
--------9-----9------------------7-----0------------------------ 
-7------------------0------------------------------------------- 
---------------------------------------------------------------- 


Ex 8 


----------------2----------------------------------------------- 
-8------------2------------------------------------------------- 
-------4----3--------------------------------------------------- 
----7-----0----------------------------------------------------- 
---------------------------------------------------------------- 
-------------------h3------------------------------------------- 


Ex 9 

---------------------------------------------------6--9-------9- 
-7-8-7----------7--5------5--4---------3-----5--7-----------7--- 
--------------7---------4------------3----6---------------8----- 
------------5---------5------------2---------------------------- 
----------7----------------------------------------------------- 
--------0-----------------------2-----------------------7------- 



Ex 10 

-7-------------------------------------------------------------- 
----7--------------------12--11----------10---------8----------- 
-------8-------------------------------8---------7--------6----- 
-------------10--9--8h9--------------9---------9-------9-------- 
----------9------------------------7---------7------------------ 
---------------------------------0------------------------------ 



--------5------------------------------------------------------- 
------5--------------------------------------------------------- 
----6----------------------------------------------------------- 
---------------------------------------------------------------- 
-0-------------------------------------------------------------- 
---------------------------------------------------------------- 

Ex 11 

-----------------5---------------------------------------------- 
-8-------------5----8-----------8-----7-----------8--7-----3---- 
-------6-----6------------6--------7--------7------------------- 
----9------------------9-----------7-----7--------------7------- 
----------0------------------5---------------------------------- 
-----------------------------------------------7---------------- 


---------------------------------------------------------------- 
--------3--7---------------------------------------------------- 
------4--------------------------------------------------------- 
----4---------7------------------------------------------------- 
---------------------------------------------------------------- 
-4-------------------------------------------------------------- 


Ex 12 


---------------------------------------------------------------- 
-7-----3---------3---------------------------------------------- 
---------------4------------------------------------------------ 
----7--------4-------------------------------------------------- 
---------------------------------------------------------------- 
----------4----------------------------------------------------- 


Ex 13 

------------------2--5--2-----7--6--4--7--------6--------------- 
---------2--3--5------------------------------5----------------- 
----3h4-------------------------------------6------------------- 
------------------------------------------4--------------------- 
---------------------------------------------------------------- 
-2-------------------------0------------------------------------ 



Ex 14 

----5--7--------7---5-----5------------------------------------- 
-8------------5---5-------------8--------8-----7-----7-----5---- 
------------5----------5-----5-----5---------------------------- 
----------0---------------------------------5-----5-----5-----5- 
--------------------------------------5------------------------- 
---------------------------------------------------------------- 


-------------------------5---------5---------------------------- 
----5-----4-----------4----------3------------------------------ 
--------------------5----------4-------------------------------- 
-------5-----4----4--------------------------------------------- 
-5--------------5----------------------------------------------- 
----------------------------3----------------------------------- 



Ex 15 

-5-----5-----3-----3-----------------------------2--3-----3----- 
-------------------------3-----7-----5-----4--5--------------6-- 
----------4-----4-----4-----4-----4-----4----------------------- 
---------------------------------------------------------------- 
-------------------------------------------------------4-------- 
----3----------------------------------------------------------- 


Ex 16 

---------------------------------------------------------------- 
-2--1h2--3--2/5--5--3-----0---------------3-----------2--------- 
--------------------------------0-------3-----------2----------- 
-----------------------------4--------2------2----0------------- 
------------------------------------------------2--------------- 
-----------------------3-----------2---------------------------- 
  

top 5 | tv cifras
top diversos
Outras músicas do artista letras do(a) TV Cifras
Top cifras »Top artistas »
Petaxxon Comunicação Online
Cifras.com.br - Melhor e mais completo site de cifras e tablaturas do Brasil
Mais de 1 milhão de acordes de músicas cadastradas desde 2003
As informações contidas no nosso site são colaborações de seus usuários e podem conter erros, sendo assim, não nos responsabilizamos sobre nenhuma destas.
close
menos
mais
close
Cor dos acordes:

Cor da letra:

 

save
close
close
 
redimensionar