Cifras e Tablaturas
TV Cifras

TV Cifras

Noite Feliz (holy Night)

Cifras Cancelar Versão de Impressão
cifras

TV Cifras - Noite Feliz (holy Night)

fixar na tela  
Exibindo: vídeo-aula ver clipes redimensionar

Tom:

  INTRO 
e---------------------|------------------------------------------ 
B---------------------|------------------------------------------ 
G---------------hn12--|------------------------------------------ 
D----------hn7--hn12--|--(2x)------------------------------------ 
A------hn7------------|------------------------------------------ 
D-hn12----------------|------------------------------------------ 


PARTE 1 
e--5--------7p5--------------|----------------------------------- 
B------7-----------7----7----|----------------------------------- 
G----7---6------------7---6--|----------------------------------- 
D-0--------------0-----------|--(2x)----------------------------- 
A----------------------------|----------------------------------- 
D----------------------------|----------------------------------- 



e------12-----12/9-----9---9------------------------------------- 
B---------------------------------------------------------------- 
G---12-----12--------9---9--------------------------------------- 
D-0----------------0---------0----------------------------------- 
A---------------------------------------------------------------- 
D---------------------------------------------------------------- 



e------10----10/5---5-------------------------------------------- 
B-----------------------7---------------------------------------- 
G---11----11----------7---6-------------------------------------- 
D-0---------------0---------------------------------------------- 
A---------------------------------------------------------------- 
D---------------------------------------------------------------- 


PARTE 2 
e----7----------10--------9-7/5---5--------7p5------------------- 
B---8----8------------8---------------7--------7------7---------- 
G--7---7---7--------7---7-----------7---6-----------7---6-------- 
D-0-----------0-----------------0----------------0--------------- 
A---------------------------------------------------------------- 
D---------------------------------------------------------------- 



e-----12---12--------15---15------12/9---9---10---10--------15--- 
B---------------------------------------------------------------- 
G---12---12--12----16---16--16--12/9---9--------11--11----15----- 
D-0--------------0-------------------------0------------0-------- 
A---------------------------------------------------------------- 
D---------------------------------------------------------------- 



e---10~/7--5---5------------------------------------------------- 
B------------7--------7-5b7r5--3---------------3----------------- 
G-------------------6-----------------0-------------------------- 
D-0---------------------------------4---4----4---2--------------- 
A-----------------0---------------------------------------------- 
D---------------------------------5--------0--------------------- 
  

top 5 | tv cifras
top diversos
Outras músicas do artista letras do(a) TV Cifras
Top cifras »Top artistas »
Petaxxon Comunicação Online
Cifras.com.br - Melhor e mais completo site de cifras e tablaturas do Brasil
Mais de 1 milhão de acordes de músicas cadastradas desde 2003
As informações contidas no nosso site são colaborações de seus usuários e podem conter erros, sendo assim, não nos responsabilizamos sobre nenhuma destas.
close
menos
mais
close
Cor dos acordes:

Cor da letra:

 

save
close
close
 
redimensionar