Cifras e Tablaturas
TV Cifras

TV Cifras

Tempo De Criança - Dilermando Reis

Cifras Cancelar Versão de Impressão
cifras

TV Cifras - Tempo De Criança - Dilermando Reis

fixar na tela  
Exibindo: vídeo-aula ver clipes redimensionar

Tom:

  
1

e|---------0-----------------------------5--------5---------------
B|-------1----3--1p0-----0h1--3/5-----5---------6-----------------
G|-----2--------------2-----------------------7-------------------
D|---2--------------------------------------0---------------------
A|-0-------------------------------4------------------------------
E|----------------------------------------------------------------

2

e|-5--------5---------------------5--8---------8------------------
B|--------6----8--6p5-----5h6--8-------------9--------------------
G|------7--------------7-------------------7----------------------
D|----0-----------------------------------------------------------
A|----------------------------------------------------------------
E|--------------------------------------0-------------------------


3

e|----7p4-------------4-----8--7----------------------------------
B|---------5-----5h6----------------------------------------------
G|------------7---------------------------------------------------
D|----------------------------------------------------------------
A|----------------------------------------------------------------
E|-4---------------------0----------------------------------------


4

e|----12p8------0-----10p7-----0-----8p5----------7p4-------------
B|----------10--------------9-------------5------------5h6-----0--
G|------------------------------------------5---------------------
D|----------------------------------------------------------------
A|-0------------------------------0-------------------------0-----
E|-----------------0---------------------------0------------------


5


e|----0-----------------------------------------------------------
B|-------3--1p0-----0--1--3--5------------------------------------
G|---------------2-----------2--2~-----0--------------------------
D|---------------------------4------------------------------------
A|-0-------------------------2------------------------------------
E|----------------------------------0-----------------------------


6

e|----------------3-----------------------------------------------
B|-0-----0------0-------------------------------------------------
G|----3-------0---------------------------------------------------
D|----------------------------------------------------------------
A|----------------------------------------------------------------
E|----------0-----------------------------------------------------


7

e|-5\--------3--2--1h2--------7--5--5-----7------------1----------
B|---------2----------------7-------3--9---------9--3--------3----
G|-------3----------------8---------4--------10-----------4-----1-
D|----------------------------------------------------------------
A|----------------------------------------------------------------
E|-----2----------------7-----------0-----------------------------


e|----------------------------------------------------------------
B|-0--------------------------------------------------------------
G|-------1--------------------------------------------------------
D|----2-----h3--2--0----------------------------------------------
A|--------------------3--2--0-------------------------------------
E|----------------------------------------------------------------



8

e|----12p10----------0--------------------------------------------
B|-----------11---------------------------------------------------
G|---------------12-----6-----0-----------------------------------
D|-------------------------7--------------------------------------
A|-0-----------------------------7-----0--------------------------
E|----------------------------------9-----4--3--2--1--0--1--------


9

e|---------12--10----------------5--10--10-----------10--8--------
B|------10---------10----------6------------------10--------10----
G|---10---------------10--6h7-------------------9---------------9-
D|-0------------------------------------------7-------------------
A|------------------------------------------0---------------------
E|----------------------------------------------------------------


e|-----------------------------2-----4--------5-------------------
B|-1---------------------------2-----3--------5-------------------
G|----2---------------------3--------------5----------------------
D|-------2p0------------------------------------------------------
A|------------3--2p0--------------------0-------------------------
E|--------------------3--2--------0-------------------------------


10

e|---------------------------------0--1--3--------5---------------
B|-------------------------0h1--3---------------3-----------------
G|--------------------0h2---------------------4-------------------
D|------------0h2--3----------------------------------------------
A|----0h2--3------------------------------------------------------
E|-3----------------------------------------3---------------------


11

e|-------5p3----------------------------3--4--5------5--5---------
B|-----3------6--3--------------3--6/7--------5----5----5---------
G|---4--------------4---------4---------------4--4------4---------
D|---------------------5--3h5-------------------------------------
A|--------------------------------------------3---------3---------
E|-3--------------------------------------------------------------


12

e|-8---------8--7p4-------------4--8--7-------------13---------12-
B|---------9---------5-----5h6-------------------11---------10----
G|-------7--------------7---------------------12----------9-------
D|-----------------------------------------11----------11---------
A|---------------------------------------0------------------------
E|----0-----------------------------------------------------------


13

e|-13-----12--10--------------12--10--12---------10--8------------
B|---------------10--------10-----------------10--------10--------
G|------------------10--10------------------9---------------9-----
D|-----0----------------------------------------------------------
A|----------------------------------------0-----------------------
E|----------------------------------------------------------------


e|---------10--8--------------------------------------------------
B|------10--------------------------------------------------------
G|---9-----------------------------------------------------------
D|----------------------------------------------------------------
A|-0--------------------------------------------------------------
E|----------------------------------------------------------------


14

e|---7------7--8------8--7------8----7------7--8------8----7------
B|--------7---------7---------7-----------9---------9-------------
G|------8---------8---------8-----------7---------7---------------
D|----------------------------------------------------------------
A|----------------------------------------------------------------
E|-7---------------------7---------0---------------------0--------


15

e|---------------------------------0h1--3/-----5------3-----------
B|-------------------------0h1--3-----------------3------6-3------
G|--------------------0h2-------------------------4---------------
D|------------0h2--3------------------------------------------3h5-
A|----0h2--3------------------------------------------------------
E|-3----------------------------------------3-------3-------------

e|-----------3--4--5--------5--0----------------------------------
B|---3--6/7---------------5----5----------------------------------
G|-4--------------------4------4----------------------------------
D|----------------------------------------------------------------
A|-----------------3--3-------3-----------------------------------
E|----------------------------------------------------------------


16

e|-10--10--10----10p8---------------------------------------------
B|--------------------11p8-------------11--8----------------------
G|-------------------------9------------------9-------------------
D|---------------------------10--8--------------10--8-------------
A|----------------------------------10-----------------10--7------
E|-------------8----------------------------------------------8---



e|-------------------------------0--5--6--7--8p5------------------
B|--------------------1h2--3--4-------------------7--4------------
G|--------0-2p0--2h3------------------------------------5---------
D|-3p2--3--------------------------------------------------7--4---
A|----------------------------------------------------------------
E|----------------------------------------------------------------




e|--------------------------------------------------0-------------
B|--------------------------------------1-2-3-4-------------------
G|----5-------------------------------0----------------6-----0----
D|-------7--4-----------------------2---------------------7-------
A|-6-----------6--3--0-----------3---------------0--------------7-
E|----------------------4--2--3-----------------------------------


e|----------------------------------------------------------------
B|------------1---------------------------------------------------
G|------------2---------------------------------------------------
D|------------0---------------------------------------------------
A|---0------------------------------------------------------------
E|-9----3--2------------------------------------------------------



17


e|----------------------------0-----------------------------------
B|----1-----1-----1--3--4--------------5--------------------------
G|----2-----2-----0------------------4----------------------------
D|----0-----3-----2----------------2------------------------------
A|-------------3--------------------------------------------------
E|-2-----3-----------------0-----4-------------------------------- 
  

top 5 | tv cifras
top diversos
Outras músicas do artista letras do(a) TV Cifras
Top cifras »Top artistas »
Petaxxon Comunicação Online
Cifras.com.br - Melhor e mais completo site de cifras e tablaturas do Brasil
Mais de 1 milhão de acordes de músicas cadastradas desde 2003
As informações contidas no nosso site são colaborações de seus usuários e podem conter erros, sendo assim, não nos responsabilizamos sobre nenhuma destas.
close
menos
mais
close
Cor dos acordes:

Cor da letra:

 

save
close
close
 
redimensionar