Cifras e Tablaturas
Tyler Ramsey

Tyler Ramsey

1000 Blackbirds

Cifras Cancelar Versão de Impressão
cifras

Tyler Ramsey - 1000 Blackbirds

fixar na tela  
Exibindo: vídeo-aula ver clipes redimensionar
   
Capo 2 

Intro  
(Raven's Shadow) 
D|-5------5/7------7/10-10-----------------------------------5------5/7--------7/2-5/2---------------------| 
C|----0-------0------------------------------------------------0----------0--------------------------------| 
G|------0-------0-----------------------------------0----0-------0----------0------------------------------| 
D|----5-------7---------10--------10---------10-------10-------5----------7----7/2-5/2----2-----2-----2----| 
G|---------------------------------------------------------------------------------------------------------| 
C|-0------0--------0----0------0---------0---------0-------- 0------0----------0---0---0-----0-----0-----0-| 

D|----------------------------------0---------------------0-----0----------------------------| 
C|---------------0--------5----------------------------0-----0-------------------------------| 
G|------0----0---------3-----3-----------3---3------------3-----3h2h0---0-----0-0------------| 
D|-0h3h5---5-------5-------------5---------5--------------------------3---------0h2---2---2--| 
G|------0------0----------0---------0---------------3----------------------------------------| 
C|--------------------------------------------------------------------------0-------0----0---| 

D|-5------5/7------7/10-10-----------------------------------5------5/7--------7/2/7/2---------------------| 
C|----0-------0------------------------------------------------0----------0--------------------------------| 
G|------0-------0-----------------------------------0----0-------0----------0------------------------------| 
D|----5-------7---------10--------10---------10-------10-------5----------7----7/2/7/2----2-----2-----2----| 
G|---------------------------------------------------------------------------------------------------------| 
C|-0------0--------0----0------0---------0---------0-------- 0------0----------0-------0-----0-----0-----0-| 

D|----------------------------------0---------------------0-----0----------------------------| 
C|---------------0--------5----------------------------0-----0-------------------------------| 
G|------0----0---------3-----3-----------3---3------------3-----3h2h0---0-----0-0------------| 
D|-0h3h5---5-------5-------------5---------5--------------------------3---------0h2---2---2--| 
G|------0------0----------0---------0---------------3----------------------------------------| 
C|--------------------------------------------------------------------------0-------0----0---| 

D|----------------------------------0------------------------------------------------------| 
C|---------------0--------5---------------------------------0------------------0----0---0--| 
G|------0----0---------3-----3-----------3---3----------0-------------0--------0----0---0--| 
D|-0h3h5---5-------5-------------5---------5----------3-------3/5-------0h2----2----2---2--| 
G|------0------0----------0---------0------------------------------------------------------| 
C|-------------------------------------------------3------3---------0--------0----0---0----| 

1000 Blackbirds Intro 
D|----------------------------7---------7-10-|------------0---------------0-----------0--------------------| 
C|---------0-----------0---------------------|------7-------------7/9---------9h10----------------0------0-| 
G|----0-----------0-----------------7--------|---0-------------0----------------------------0---------0----| 
D|-------7-----------7----------10-----------|------8-------8----------10-----------10---------7---------7-| 
G|-5-----------5-----------------------------|-0--------0---------0-----------0---------------------5------| 
C|--------------------------0-----------0----|--------------------------------------------5----------------| 
                                              (x2) 

Verse 
D|------------------------|--------------------------------------------------------|---------------------| 
C|--------0---------------|------7--------7--------7--------7------------0------0--|------0--------------| 
G|-----5---------5-----5--|--------0--------0--------0--------0-----0--------0-----|---5--------5-----5--| 
D|--------5---------7-----|------8--------8--------8--------8---------7---------7--|------5--------7-----| 
G|---5---------5----------|--0-------0--------0--------0---------------------------|-5--------5----------| 
C|------------------------|---------------------------------------5--------5-------|---------------------| 
"oh don't you see..."         "he's clinging onto branches....."   

Chorus                      
D|--------------------------------------------------------------| 
C|-----2----2-------4----------9------9---------9-------9-------| 
G|-------0------0--------0--------0--------0-------0---------0--| 
D|-----3------3--------5-------10-------10------10--------10----| 
G|-3-------3--------5-------10------10-------10------10---------| 
C|--------------------------------------------------------------| 
       "Raven's shadow......"                            

D|----------------------------------------------------------| 
C|-----2----2-------4-----------0-----0---------0-----0-----| 
G|-------0------0--------0---------0------0--------0------0-| 
D|-----3------3--------5--------7-------7-------7-------7---| 
G|-3-------3--------5---------------------------------------| 
C|---------------------------5-------5-------5-------5------| 
       "Hopeless sorrow...." 

Verse 
D|------------------------|--------------------------------------------------------|---------------------| 
C|--------0---------------|------7--------7--------7--------7------------0------0--|------0--------------| 
G|-----5---------5-----5--|--------0--------0--------0--------0-----0--------0-----|---5--------5-----5--| 
D|--------5---------7-----|------8--------8--------8--------8---------7---------7--|------5--------7-----| 
G|---5---------5----------|--0-------0--------0--------0---------------------------|-5--------5----------| 
C|------------------------|---------------------------------------5--------5-------|---------------------| 
"oh don't you see..."         "he's clinging onto branches....."   

Chorus                      
D|--------------------------------------------------------------| 
C|-----2----2-------4----------9------9---------9-------9-------| 
G|-------0------0--------0--------0--------0-------0---------0--| 
D|-----3------3--------5-------10-------10------10--------10----| 
G|-3-------3--------5-------10------10-------10------10---------| 
C|--------------------------------------------------------------| 
       "Raven's shadow......"                            

D|----------------------------------------------------------| 
C|-----2----2-------4-----------0-----0---------0-----0-----| 
G|-------0------0--------0---------0------0--------0------0-| 
D|-----3------3--------5--------7-------7-------7-------7---| 
G|-3-------3--------5---------------------------------------| 
C|---------------------------5-------5-------5-------5------| 
       "Hopeless sorrow...." 

1000 Blackbirds Intro 
D|----------------------------7---------7-10-|------------0---------------0-----------0--------------------| 
C|---------0-----------0---------------------|------7-------------7/9---------9h10----------------0------0-| 
G|----0-----------0-----------------7--------|---0-------------0----------------------------0---------0----| 
D|-------7-----------7----------10-----------|------8-------8----------10-----------10---------7---------7-| 
G|-5-----------5-----------------------------|-0--------0---------0-----------0---------------------5------| 
C|--------------------------0-----------0----|--------------------------------------------5----------------| 
                                              (x2) 

Verse 
D|------------------------|--------------------------------------------------------|---------------------| 
C|--------0---------------|------7--------7--------7--------7------------0------0--|------0--------------| 
G|-----5---------5-----5--|--------0--------0--------0--------0-----0--------0-----|---5--------5-----5--| 
D|--------5---------7-----|------8--------8--------8--------8---------7---------7--|------5--------7-----| 
G|---5---------5----------|--0-------0--------0--------0---------------------------|-5--------5----------| 
C|------------------------|---------------------------------------5--------5-------|---------------------| 
"oh don't you see..."         "he's clinging onto branches....."   

Chorus                      
D|--------------------------------------------------------------| 
C|-----2----2-------4----------9------9---------9-------9-------| 
G|-------0------0--------0--------0--------0-------0---------0--| 
D|-----3------3--------5-------10-------10------10--------10----| 
G|-3-------3--------5-------10------10-------10------10---------| 
C|--------------------------------------------------------------| 
       "Raven's shadow......"                            

D|----------------------------------------------------------| 
C|-----2----2-------4-----------0-----0---------0-----0-----| 
G|-------0------0--------0---------0------0--------0------0-| 
D|-----3------3--------5--------7-------7-------7-------7---| 
G|-3-------3--------5---------------------------------------| 
C|---------------------------5-------5-------5-------5------| 
       "Hopeless sorrow...." 


************************************ 

| /  Slide up 
| h  Hammer-on 
    

************************************ 
  

top 5 | tyler ramsey
top rock'n roll
Outras músicas do artista letras do(a) Tyler Ramsey
Top cifras »Top artistas »
Petaxxon Comunicação Online
Cifras.com.br - Melhor e mais completo site de cifras e tablaturas do Brasil
Mais de 1 milhão de acordes de músicas cadastradas desde 2003
As informações contidas no nosso site são colaborações de seus usuários e podem conter erros, sendo assim, não nos responsabilizamos sobre nenhuma destas.
close
menos
mais
close
Cor dos acordes:

Cor da letra:

 

save
close
close
 
redimensionar