Cifras e Tablaturas
Unknown Mortal Orchestra

Unknown Mortal Orchestra

American Guilt

Cifras Cancelar Versão de Impressão
cifras

Unknown Mortal Orchestra - American Guilt

fixar na tela  
Exibindo: vídeo-aula ver clipes redimensionar
  
Intro 

Eb|-----------------------------| 
Bb|-----------------------------| 
Gb|-----------------------------| 
Db|-----------------------------| 
Ab|-0-0-0-0---0-0-0-0---0-0-0-0-| 
Eb|-----------------------------| 


Eb|--------------------------|----------------------------| 
Bb|--------------------------|----------------------------| 
Gb|--------------------------|----------------------------| 
Db|------------------5-0-7/9-|-(9)-10-9~~-----------------| 
Ab|----0-3-0-5-0-7-0---------|-------------0-0-0-0---0-0--| 
Eb|--------------------------|----------------------------| 


Eb||------------------------------|---------------------------|| 
Bb||------------------------------|---------------------------|| 
Gb||------------------------------|---------------------------|| 
Db||----------------------5-0-7/9-|-9-10-9~~------------------|| x2 
Ab||--0-0---0-3-0-5-0-7-0---------|------------0-0-0-0---0-0--|| 
Eb||------------------------------|---------------------------|| 


Eb|--------------------------------| 
Bb|--------------------------------| 
Gb|--------------------------------| 
Db|---------------------5-0-7-5----| 
Ab|-0-0---0-3-0-5-0-7-0-------6----| 
Eb|--------------------------------| 


Verse 

Eb||------------------|-------------------------------|| 
Bb||------------------|-------------------------------|| 
Gb||------------------|-------------------------------|| 
Db||--(5)-5-----------|----------------------5-0-7-5--|| x3 
Ab||--(6)-6---7-7---4-|-(4)-4--0-3-0-5-0-7-0-------6--|| 
Eb||----------8-8---5-|-(5)-5-------------------------|| 


Eb|------------------| 
Bb|------------------| 
Gb|------------------| 
Db|--(5)-5-----------| 
Ab|--(6)-6---7-7---6-| 
Eb|----------8-8-----| 


Pre-Chorus 

Eb||--------------------|--------------------|| 
Bb||--------------------|--------------------|| 
Gb||--------------------|--------------------|| 
Db||--------------------|--------------------|| x3 
Ab||--(6)-0-0--6-0-0--7-|-(7)-0-0--7-0-0--6--|| 
Eb||--------------------|--------------------|| 


Eb|-----------------|--------------------------| 
Bb|-----------------|--------------------------| 
Gb|-----------------|--------------------------| 
Db|-----------------|------------------5h7p5---| 
Ab|-6-0-0--6-0-0--7-|-(7)-0-0--7p5---5-------7-| 
Eb|-----------------|--------------7-----------| 


Chorus 
                                          
Eb||------------------------|---------------|| 
Bb||------------------------|-----------8---|| 
Gb||------------------------|-----------7---|| 
Db||----------5-------------|---------------|| x3 
Ab||------5h7--------5------|---------------|| 
Eb||--0-0--------5h7----7-5-|-8-8-8-7-------|| 


Eb|----------------------|--------------| 
Bb|----------------------|--------------| 
Gb|----------------------|--------------| 
Db|---------5------------|--------------| 
Ab|-----5h7--------5-----|--------------| 
Eb|-0-0--------5h7---7-5-|-8-8-8-7---5--| 


Intro Riff 

Eb|-----------------------------| 
Bb|-----------------------------| 
Gb|-----------------------------| 
Db|-----------------------------| 
Ab|-0-0-0-0---0-0-0-0---0-0-0-0-| 
Eb|-----------------------------| 


Eb|--------------------------|----------------------------| 
Bb|--------------------------|----------------------------| 
Gb|--------------------------|----------------------------| 
Db|------------------5-0-7/9-|-(9)-10-9~~-----------------| 
Ab|----0-3-0-5-0-7-0---------|-------------0-0-0-0---0-0--| 
Eb|--------------------------|----------------------------| 


Eb||------------------------------|---------------------------|| 
Bb||------------------------------|---------------------------|| 
Gb||------------------------------|---------------------------|| 
Db||----------------------5-0-7/9-|-9-10-9~~------------------|| x2 
Ab||--0-0---0-3-0-5-0-7-0---------|------------0-0-0-0---0-0--|| 
Eb||------------------------------|---------------------------|| 


Eb|--------------------------------| 
Bb|--------------------------------| 
Gb|--------------------------------| 
Db|---------------------5-0-7-5----| 
Ab|-0-0---0-3-0-5-0-7-0-------6----| 
Eb|--------------------------------| 


verse 2 

Eb||------------------|-------------------------------|| 
Bb||------------------|-------------------------------|| 
Gb||------------------|-------------------------------|| 
Db||--(5)-5-----------|----------------------5-0-7-5--|| x3 
Ab||--(6)-6---7-7---4-|-(4)-4--0-3-0-5-0-7-0-------6--|| 
Eb||----------8-8---5-|-(5)-5-------------------------|| 


Eb|------------------| 
Bb|------------------| 
Gb|------------------| 
Db|--(5)-5-----------| 
Ab|--(6)-6---7-7---6-| 
Eb|----------8-8-----| 


Pre-Chorus 2 

Eb||--------------------|--------------------|| 
Bb||--------------------|--------------------|| 
Gb||--------------------|--------------------|| 
Db||--------------------|--------------------|| x3 
Ab||--(6)-0-0--6-0-0--7-|-(7)-0-0--7-0-0--6--|| 
Eb||--------------------|--------------------|| 


Eb|-----------------|--------------------------| 
Bb|-----------------|--------------------------| 
Gb|-----------------|--------------------------| 
Db|-----------------|------------------5h7p5---| 
Ab|-6-0-0--6-0-0--7-|-(7)-0-0--7p5---5-------7-| 
Eb|-----------------|--------------7-----------| 


Chorus 2 
                                          
Eb||------------------------|---------------|| 
Bb||------------------------|-----------8---|| 
Gb||------------------------|-----------7---|| 
Db||----------5-------------|---------------|| x3 
Ab||------5h7--------5------|---------------|| 
Eb||--0-0--------5h7----7-5-|-8-8-8-7-------|| 


Eb|----------------------|--------------| 
Bb|----------------------|--------------| 
Gb|----------------------|--------------| 
Db|---------5------------|--------------| 
Ab|-----5h7--------5-----|--------------| 
Eb|-0-0--------5h7---7-5-|-8-8-8-7---5--| 


Intro Riff 

Eb|-----------------------------| 
Bb|-----------------------------| 
Gb|-----------------------------| 
Db|-----------------------------| 
Ab|-0-0-0-0---0-0-0-0---0-0-0-0-| 
Eb|-----------------------------| 


Eb|--------------------------|----------------------------| 
Bb|--------------------------|----------------------------| 
Gb|--------------------------|----------------------------| 
Db|------------------5-0-7/9-|-(9)-10-9~~-----------------| 
Ab|----0-3-0-5-0-7-0---------|-------------0-0-0-0---0-0--| 
Eb|--------------------------|----------------------------| 


Eb||------------------------------|---------------------------|| 
Bb||------------------------------|---------------------------|| 
Gb||------------------------------|---------------------------|| 
Db||----------------------5-0-7/9-|-9-10-9~~------------------|| x2 
Ab||--0-0---0-3-0-5-0-7-0---------|------------0-0-0-0---0-0--|| 
Eb||------------------------------|---------------------------|| 


Eb|--------------------------------| 
Bb|--------------------------------| 
Gb|--------------------------------| 
Db|---------------------5-0-7-5----| 
Ab|-0-0---0-3-0-5-0-7-0-------6----| 
Eb|--------------------------------| 


verse 3 

Eb||------------------|-------------------------------|| 
Bb||------------------|-------------------------------|| 
Gb||------------------|-------------------------------|| 
Db||--(5)-5-----------|----------------------5-0-7-5--|| x3 
Ab||--(6)-6---7-7---4-|-(4)-4--0-3-0-5-0-7-0-------6--|| 
Eb||----------8-8---5-|-(5)-5-------------------------|| 


Eb|------------------| 
Bb|------------------| 
Gb|------------------| 
Db|--(5)-5-----------| 
Ab|--(6)-6---7-7---6-| 
Eb|----------8-8-----| 


Pre-Chorus 2 

Eb||--------------------|--------------------|| 
Bb||--------------------|--------------------|| 
Gb||--------------------|--------------------|| 
Db||--------------------|--------------------|| x3 
Ab||--(6)-0-0--6-0-0--7-|-(7)-0-0--7-0-0--6--|| 
Eb||--------------------|--------------------|| 


Eb|-----------------|--------------------------| 
Bb|-----------------|--------------------------| 
Gb|-----------------|--------------------------| 
Db|-----------------|------------------5h7p5---| 
Ab|-6-0-0--6-0-0--7-|-(7)-0-0--7p5---5-------7-| 
Eb|-----------------|--------------7-----------| 


Chorus 3 
                                          
Eb||------------------------|---------------|| 
Bb||------------------------|-----------8---|| 
Gb||------------------------|-----------7---|| 
Db||----------5-------------|---------------|| x3 
Ab||------5h7--------5------|---------------|| 
Eb||--0-0--------5h7----7-5-|-8-8-8-7-------|| 


Eb|----------------------|--------------| 
Bb|----------------------|--------------| 
Gb|----------------------|--------------| 
Db|---------5------------|--------------| 
Ab|-----5h7--------5-----|--------------| 
Eb|-0-0--------5h7---7-5-|-8-8-8-7---5--| 


Outro Chords 

Eb|-3--------|-2--------|-1--------|-0----| 
Bb|-3--------|-3--------|-0--------|-1----| 
Gb|-4--------|-4--------|-2--------|-2----| 
Db|-5--------|-4--------|-0--------|-2----| 
Ab|-5--------|-2--------|----------|-0----| 
Eb|-3--------|----------|----------|------| 


Eb|-3--------|-2--------|-0--------|-2----| 
Bb|-3--------|-3--------|-0--------|-3----| 
Gb|-2--------|-2--------|-0--------|-0----| 
Db|-0--------|-4--------|-2--------|-4----| 
Ab|----------|-2--------|-3--------|-5----| 
Eb|----------|----------|----------|------| 


Eb|-0--------|-------| 
Bb|-0--------|-4-----| 
Gb|-0--------|-4-----| 
Db|-2--------|-4-----| 
Ab|-2--------|-2-----| 
Eb|-0--------|-------| 


*********************************** 
| /   Slide up 
| \   Slide down 
| h   Hammer-on 
| p   Pull-off 
| ~   Vibrato 
|(n)  Tied note 
*********************************** 
  

top 5 | unknown mortal orchestra
top rock alternativo
Outras músicas do artista letras do(a) Unknown Mortal Orchestra
Top cifras »Top artistas »
Petaxxon Comunicação Online
Cifras.com.br - Melhor e mais completo site de cifras e tablaturas do Brasil
Mais de 1 milhão de acordes de músicas cadastradas desde 2003
As informações contidas no nosso site são colaborações de seus usuários e podem conter erros, sendo assim, não nos responsabilizamos sobre nenhuma destas.
close
menos
mais
close
Cor dos acordes:

Cor da letra:

 

save
close
close
 
redimensionar