Cifras e Tablaturas
Upon A Burning Body

Upon A Burning Body

A Toda Madre O Un Desmadre

Cifras Cancelar Versão de Impressão
cifras

Upon A Burning Body - A Toda Madre O Un Desmadre

fixar na tela  
Exibindo: vídeo-aula ver clipes redimensionar

Tom:

  
Riff 1. Both Guitars 
e|-----------------------------------0-----| 
B|--1-----1--1-----1--1-----1--3-----------| 
G|----2--------2--------2--------2---------| 
D|------2--------2--------2--------2-------| 
A|--0--------0--------0--------0-----------| 
E|-----------------------------------------| 

Riff 2. Both Guitars 
e|------------------------------------------| 
B|--5-----5--5-----5--5-----5--6-5-3--------| 
G|----4--------5--------5-------------------| 
D|------5--------4--------4-----------------| 
A|--3--------3--------3--------3-3-3--------| 
E|------------------------------------------| 

Riff 3. Both Guitars 
e|------------------------------------------| 
B|--0-----0--0-----0--0-----0--4-----4------| 
G|----2--------2--------2--------2----------| 
D|------1--------1--------1--------1--------| 
A|--2--------2--------2--------2------------| 
E|------------------------------------------| 

Riff 4. Both Guitars 
e|------------------------------------------| 
B|--0-----0--0-----0--5h6h5-3---------------| 
G|----1--------1--------------5-4-1-----1---| 
D|------2--------2------------------3-2-----| 
A|--2--------2------------------------------| 
E|------------------------------------------| 

Guitar 1 
e|--5--|   |--8--|   |--7--|   |--7--| 
B|--5--|x24|--5--|x24|--5--|x24|--5--|x12 
G|--5--|   |--5--|   |--7--|   |--5--| 
D|-----------------------------------| 
A|-----------------------------------| 
E|-----------------------------------| 

Guitar 2. 
Riff 1. Riff 2. Riff 3 

Both Guitars. 
e|----------------------------| 
B|--5h6h5-3-------------------| 
G|----------5-4-1-----1-------| 
D|----------------3-2---------| 
A|----------------------------| 
E|----------------------------| 

Guitar 1. 
e|----------------------------------------------------------------------| 
B|----------------------------------------------------------------------| 
G|----------------------------------------------------------------------| 
D|----------------------------------------------------------------------| 
A|--------7-------7-------7-------7-------3-------3-------3-7-8-7-------| 
E|--5-7-8---5-7-8---5-7-8---5-7-8---4-5-7---4-5-7---4-5-7---------8-7-5-| 

e|----------------------------------------------------------------------| 
B|--------------------5-6-5-3-------------------------------------------| 
G|----------------------------5-4-2-4-5-2-------------------------------| 
D|----------------------------------------3-2---------------------------| 
A|--------7--------7---------------------------------3-------3----------| 
E|--5-7-8---5-7-8-----------------------------4-5-7----4-5-7------------| 

e|-7-8-5--------------------------------------------|---5---|   |-----| 
B|-------6-5-3-1-0-------3-5h6h5-3------------------|---5---|x24|-----| 
G|-----------------2-4-5-----------5-4-1-----1------|---5---|   |-----| 
D|---------------------------------------3-2--------|-----------------| 
A|--------------------------------------------------|-----------------| 
E|--------------------------------------------------|-----------------| 

Guitar 2. 
e|--5-X-5-X-5-X-5-X-4-X-4-X-4-X-4-X-5-X-5-X-5-X-5-X-4-X-4-X-4-X----5-X---| 
B|--5–X-5-X-5-X-5-X-4-X-4-X-4-X-4-X-5-X-5-X-5-X-5-X-4-X-4-X-4-X----5-X---| 
G|--6-X-6-X-6-X-6-X-5-X-5-X-5-X-5-X-6-X-6-X-6-X-6-X-5-X-5-X-5-X----6-X---| 
D|--7-X-7-X-7-X-7-X-6-X-6-X-6-X-6-X-7-X-7-X-7-X-7-X-6-X-6-X-6-X----7-X---| 
A|--7-X-7-X-7-X-7-X-6-X-6-X-6-X-6-X-7-X-7-X-7-X-7-X-6-X-6-X-6-X----7-X---| 
E|--5-X-5-X-5-X-5-X-4-X-4-X-4-X-4-X-5-X-5-X-5-X-5-X-4-X-4-X-4-X----5-X---| 

Guitar 1. 
e|---------5-5-5-------------| 
B|---------5-5-5-------------| 
G|---------6-6-6-------------| 
D|---------7-7-7-------------| 
A|---------7-7-7-------------| 
E|--5-7-8--5-5-5-------------| 

Guitar 2 
e|--5-X--5-5-5---------------| 
B|--5-X--5-5-5---------------| 
G|--6-X--6-6-6---------------| 
D|--7-X--7-7-7---------------| 
A|--7-X--7-7-7---------------| 
E|--5-X--5-5-5---------------| 

Both Guitars. Note: Luck with the strumming. 
e|--5--3--2--0---------------| 
B|--5--3--0--0---------------| 
G|--6--4--2--1---------------| x2 
D|--7--5--1--0---------------| 
A|--7--5--2--2---------------| 
E|--5--3---------------------| 

Guitar 1 
e|--8-5---5-8-5---5-8-5----5-8-5-----------| 
B|------5-------5-------55-------5---------| 
G|-----------------------------------------| 
D|-----------------------------------------| 
A|-----------------------------------------| 
E|-----------------------------------------| 

Guitar 2 
e|--5--5--5----| 
B|--5--5--5----| 
G|--6--6--6----| 
D|--7--7--7----| 
A|--7--7--5----| 
E|--5--5--5----|  
  

top 5 | upon a burning body
top rock'n roll
Outras músicas do artista letras do(a) Upon A Burning Body
Top cifras »Top artistas »
Petaxxon Comunicação Online
Cifras.com.br - Melhor e mais completo site de cifras e tablaturas do Brasil
Mais de 1 milhão de acordes de músicas cadastradas desde 2003
As informações contidas no nosso site são colaborações de seus usuários e podem conter erros, sendo assim, não nos responsabilizamos sobre nenhuma destas.
close
menos
mais
close
Cor dos acordes:

Cor da letra:

 

save
close
close
 
redimensionar