Cifras e Tablaturas
Vangelis

Vangelis

Carruagem De Fogo Tablatura Verificada

Compositor : (Vangelis)

Cifras Cancelar Versão de Impressão
cifras

Vangelis - Carruagem De Fogo

fixar na tela  
Exibindo: vídeo-aula ver clipes redimensionar

Tom:

   
Parte A  


e|-----0-2-0--------0-2-0--------0-2-0-------------------------------------|  
B|---3-------2----3-------2----3-------2----3-2----------------------------|  
G|-2---------2--2---------2--2---------2--2-----2-2------------------------|  
D|---0------------0------------0------------0------------------------------|  
A|---------0------------0------------0------------0------------------------|  
E|-------------------------------------------------------------------------|  

 Parte B  


e|--5-4-2-0--4-0-2---0---5-4-2-0--4---5-4-2-0--4-0-2---0-------------5-----|  
B|-----------5---3-3-2------------5------------5---3-3-2----3-2------5-----|  
G|-----------4---2---2------------4------------4---2---2--2-----2-2--6-----|  
D|---------------0---------------------------------0--------0--------------|  
A|-------------------0---------------------------------0----------0--------|  
E|-----------0--------------------0------------0---------------------------|  

  

top 5 | vangelis
top filmes
Outras músicas do artista letras do(a) Vangelis
Top cifras »Top artistas »
Petaxxon Comunicação Online
Cifras.com.br - Melhor e mais completo site de cifras e tablaturas do Brasil
Mais de 1 milhão de acordes de músicas cadastradas desde 2003
As informações contidas no nosso site são colaborações de seus usuários e podem conter erros, sendo assim, não nos responsabilizamos sobre nenhuma destas.
close
menos
mais
close
Cor dos acordes:

Cor da letra:

 

save
close
close
 
redimensionar