Cifras e Tablaturas
Ventre

Ventre

Mulher

Cifras Cancelar Versão de Impressão
cifras

Ventre - Mulher

fixar na tela  
Exibindo: vídeo-aula ver clipes redimensionar

Tom:

  
E|------------------------------ 
B|------------8-------------8--- 
G|------8------------8---------- 
D|------------------------------ 
A|------------------------------ 
E|---8-----8------8-----8------- 


E|-------------------------------/--------------- 
B|-------------8--------------8--/-------------6- 
G|-------7-------------7---------/-------5------- 
D|-------------------------------/--------------- 
A|-------------------------------/--------------- 
E|---6-----6-------6-------6-----/---4------4---- 


E|---------------------------------------------- 
B|-------------6--------------3---------------3- 
G|-------5-------------4----------------4------- 
D|---------------------------------------------- 
A|---------------------------------------------- 
E|---4-----4-------3-------3--------3------3----  



Esse variação vai até o pré-refrão: 


E quando vier... 


E|---------------------------------------------- 
B|--8----8----6----3---------------------------- 
G|--8----7----5----4---------------------------- 
D|---------------------------------------------- 
A|---------------------------------------------- 
E|--8----6----4----3---------------------------- 



Qualquer... 


E|--8-8-8--6-6-6--4-4-4--3-3-3------------------- 



(Repete tudo) 
  

top 5 | ventre
top rock'n roll
Outras músicas do artista letras do(a) Ventre
Top cifras »Top artistas »
Petaxxon Comunicação Online
Cifras.com.br - Melhor e mais completo site de cifras e tablaturas do Brasil
Mais de 1 milhão de acordes de músicas cadastradas desde 2003
As informações contidas no nosso site são colaborações de seus usuários e podem conter erros, sendo assim, não nos responsabilizamos sobre nenhuma destas.
close
menos
mais
close
Cor dos acordes:

Cor da letra:

 

save
close
close
 
redimensionar