Cifras e Tablaturas
Victorious Cast

Victorious Cast

Broken Glass

Cifras Cancelar Versão de Impressão
cifras

Victorious Cast - Broken Glass

fixar na tela  
Exibindo: vídeo-aula ver clipes redimensionar
  
Verse 
   
            C     C/G       C     C/G       G    
   
e|-------|--0--0-0-0--0-0-|-0--0-0-0--0-0-|-3--3--3--3-3-3-|-3--3--3--3-3-3--| 
B|-------|--1--1-1-1--1-1-|-1--1-1-1--1-1-|-3--3--3--3-3-3-|-3--3--3--3-3-3--| 
G|-------|--0--0-0-0--0-0-|-0--0-0-0--0-0-|-0--0--0--0-0-0-|-0--0--0--0-0-0--| 
D|-------|--2--2-2-2--2-2-|-2--2-2-2--2-2-|-0--0--0--0-0-0-|-0--0--0--0-0-0--| 
A|---0-2-|--3--3-3-3--3-3-|-3--3-3-3--3-3-|-2--2--2--2-2-2-|-2--2--2--2-2-2--| 
E|-3-----|---------3--3-3-|--------3--3-3-|-3--3--3--3-3-3-|-3--3--3--3-3-3--| 
  
   F                                 G                G 

e|-1--1--1--1-1-1-|-1--1--1--1-1-1-|-3--3--3--3-3-3-|-3--| 
B|-1--1--1--1-1-1-|-1--1--1--1-1-1-|-3--3--3--3-3-3-|-3--| 
G|-2--2--2--2-2-2-|-2--2--2--2-2-2-|-0--0--0--0-0-0-|-0--| 
D|-3--3--3--3-3-3-|-3--3--3--3-3-3-|-0--0--0--0-0-0-|-0--| 
A|-3--3--3--3-3-3-|-3--3--3--3-3-3-|-2--2--2--2-2-2-|-2--| 
E|-1--1--1--1-1-1-|-1--1--1--1-1-1-|-3--3--3--3-3-3-|-3--| 

Chorus} 

    C     C/G       C     C/G       C     C/G       C 

e|--0--0-0-0--0-0-|-0--0-0-0--0-0-|-0--0-0-0--0-0-|-0-|-------| 
B|--1--1-1-1--1-1-|-1--1-1-1--1-1-|-1--1-1-1--1-1-|-1-|-------| 
G|--0--0-0-0--0-0-|-0--0-0-0--0-0-|-0--0-0-0--0-0-|-0-|-------| 
D|--2--2-2-2--2-2-|-2--2-2-2--2-2-|-2--2-2-2--2-2-|-2-|-------| 
A|--3--3-3-3--3-3-|-3--3-3-3--3-3-|-3--3-3-3--3-3-|-3-|---0-2-| 
E|---------3--3-3-|--------3--3-3-|--------3--3-3-|---|-3-----| 


verse 2 

   Em                                C                G 

e|-0--0--0--0-0-0-|-0--0--0--0-0-0-|-0--0--0--0-0-0-|-3--3--3--3-3-3--| 
B|-0--0--0--0-0-0-|-0--0--0--0-0-0-|-1--1--1--1-1-1-|-3--3--3--3-3-3--| 
G|-0--0--0--0-0-0-|-0--0--0--0-0-0-|-0--0--0--0-0-0-|-0--0--0--0-0-0--| 
D|-2--2--2--2-2-2-|-2--2--2--2-2-2-|-2--2--2--2-2-2-|-0--0--0--0-0-0--|  
A|-2--2--2--2-2-2-|-2--2--2--2-2-2-|-3--3--3--3-3-3-|-2--2--2--2-2-2--| 
E|-0--0--0--0-0-0-|-0--0--0--0-0-0-|----------------|-3--3--3--3-3-3--| 

   Em                                C                D              

e|-0--0--0--0-0-0-|-0--0--0--0-0-0-|-0--0--0--0-0-0-|-3-| 
B|-0--0--0--0-0-0-|-0--0--0--0-0-0-|-1--1--1--1-1-1-|-2-| 
G|-0--0--0--0-0-0-|-0--0--0--0-0-0-|-0--0--0--0-0-0-|-3-| 
D|-2--2--2--2-2-2-|-2--2--2--2-2-2-|-2--2--2--2-2-2-|-0-| 
A|-2--2--2--2-2-2-|-2--2--2--2-2-2-|-3--3--3--3-3-3-|---| 
E|-0--0--0--0-0-0-|-0--0--0--0-0-0-|----------------|---| 


Chorus 2 

   C                                 G 

e|-0--0--0--0-0-0-|-0--0--0--0-0-0-|-3--3--3--3-3-3-|-3--3--3--3-3-3--| 
B|-1--1--1--1-1-1-|-1--1--1--1-1-1-|-3--3--3--3-3-3-|-3--3--3--3-3-3--| 
G|-0--0--0--0-0-0-|-0--0--0--0-0-0-|-0--0--0--0-0-0-|-0--0--0--0-0-0--| 
D|-2--2--2--2-2-2-|-2--2--2--2-2-2-|-0--0--0--0-0-0-|-0--0--0--0-0-0--| 
A|-3--3--3--3-3-3-|-3--3--3--3-3-3-|-2--2--2--2-2-2-|-2--2--2--2-2-2--| 
E|----------------|----------------|-3--3--3--3-3-3-|-3--3--3--3-3-3--| 

   C                                 G 

e|-0--0--0--0-0-0-|-0--0--0--0-0-0-|-3--3--3--3-3-3-|-------| 
B|-1--1--1--1-1-1-|-1--1--1--1-1-1-|-3--3--3--3-3-3-|-------| 
G|-0--0--0--0-0-0-|-0--0--0--0-0-0-|-0--0--0--0-0-0-|-------| 
D|-2--2--2--2-2-2-|-2--2--2--2-2-2-|-0--0--0--0-0-0-|-------| 
A|-3--3--3--3-3-3-|-3--3--3--3-3-3-|-2--2--2--2-2-2-|---0-2-| 
E|----------------|----------------|-3--3--3--3-3-3-|-3-----| 

Thats pretty much it, it should be nearly 100%, see the attached video for strumming pattern 
  

cifra enviadasem correções
enviado porenviada por:educastilho
top 5 | victorious cast
top rock'n roll
Outras músicas do artista letras do(a) Victorious Cast
Top cifras »Top artistas »
Petaxxon Comunicação Online
Cifras.com.br - Melhor e mais completo site de cifras e tablaturas do Brasil
Mais de 1 milhão de acordes de músicas cadastradas desde 2003
As informações contidas no nosso site são colaborações de seus usuários e podem conter erros, sendo assim, não nos responsabilizamos sobre nenhuma destas.
close
menos
mais
close
Cor dos acordes:

Cor da letra:

 

save
close
close
 
redimensionar