Cifras e Tablaturas
Violent Soho

Violent Soho

Birth Of The Teen-age

Cifras Cancelar Versão de Impressão Print

Violent Soho - Birth Of The Teen-age

Tom: D

  			

Tuning - Drop D Tuning (DADGBE) 

It's not entirely accurate, but it works OK 


Intro 

|----------------------|----------------------| 
|----------------------|----------------------| 
|----------3------0----|----------5-----------|   x4 
|----0-------0------0--|----5-------5---5-----| 
|--0---0-0-----0-------|--5---5-5-----5---5---| 

Verse 

"The valley is empty. The crying is ended" 
|----------------------|----------------------| 
|----------------------|----------------------| 
|----------3------0----|----------5-----------|   x2 
|----0-------0------0--|----5-------5---5-----| 
|--0---0-0-----0-------|--5---5-5-----5---5---| 

"Television screen's on high. The phone killed another night" 
|----------------------|----------------------| 
|----------------------|----------------------| 
|----------3-----3-----|----------------------|   x2  
|----3-------3-----3---|----5-------5-----5---| 
|--3---3-3-----3-------|--5---5-5-----5-5---5-| 

"The breathing's irritating. No sunlight, no cravings" 
|----------------------|----------------------| 
|----------------------|----------------------| 
|----------3------0----|----------5-----------|   x2  
|----0-------0------0--|----5-------5---5-----| 
|--0---0-0-----0-------|--5---5-5-----5---5---| 

"Love will never be the same. It's truth, youth or lame ideas" 
|----------------------|----------------------| 
|----------------------|----------------------| 
|----------3-----3-----|----------------------|   x2  
|----3-------3-----3---|----5-------5-----5---| 
|--3---3-3-----3-------|--5---5-5-----5-5---5-| 

Chorus 
"People don't like to hurt" 
|----------------------|----------------------| 
|----------------------|----------------------| 
|----------8-----------|----------7-----5-----|  
|----8-------8---8-----|----0-------0-----0---| 
|--8---8-8-----8---8---|--0---0-0-----0-------| 

"People scrape at the earth" 
|----------------------|----------------------| 
|----------------------|----------------------| 
|----------8-----------|----------7-----5-----|  
|----8-------8---8-----|----0-------0-----0---| 
|--8---8-8-----8---8---|--0---0-0-----0-------| 

"They just feel no age" 
|----------------------| 
|----------------------| 
|----------3-----3-----|  
|----3-------3-----3---| 
|--3---3-3-----3-------| 

"Idiots in my mind" 
|----------------------|----------------------| 
|----------------------|----------------------| 
|----------8-----------|----------7-----5-----|  
|----8-------8---8-----|----0-------0-----0---| 
|--8---8-8-----8---8---|--0---0-0-----0-------| 

"Idiots talk at night" 
|----------------------|----------------------| 
|----------------------|----------------------| 
|----------8-----------|----------7-----5-----|  
|----8-------8---8-----|----0-------0-----0---| 
|--8---8-8-----8---8---|--0---0-0-----0-------| 

"I'll just sit and wait" 
|----------------------| 
|----------------------| 
|----------3-----3-----|  
|----3-------3-----3---| 

"I know it will be okay. I know it will be ok" 
|----------------------|----------------------| 
|----------------------|----------------------| 
|----------3-----3-----|----------------------|   x2  
|----3-------3-----3---|----5-------5-----5---| 
|--3---3-3-----3-------|--5---5-5-----5-5---5-| 

Verse 
  
The ghost that kept watching  
The siblings were waiting  
I could never understand  
Love is fake. I'll kill I swear  

Chorus 

People don't like to hurt  
People scrape at the earth 
They just feel no age 
Idiots in my mind 
Idiots talk at night 
I'll just sit and wait 
I know it will be okay  


Bridge 

|-----------------------|---------------------|-------------------| 
|-----------------------|---------------------|-------------------| 
|--0-0-0-0-0-0-0-0------|--5-5-5-5-5-5-5-5-5--|--3-3-3-3-3-3-3-3--|   x6 
|--0-0-0-0-0-0-0-0-x2-|--5-5-5-5-5-5-5-5-5--|--3-3-3-3-3-3-3-3--| 
|--0-0-0-0-0-0-0-0------|--5-5-5-5-5-5-5-5-5--|--3-3-3-3-3-3-3-3--| 

Outro 

|----------------------|----------------------| 
|----------------------|----------------------| 
|----------3------0----|----------5-----------|   x4 
|----0-------0------0--|----5-------5---5-----| 
|--0---0-0-----0-------|--5---5-5-----5---5---| 

"I belong..." 
|----------------------|----------------------| 
|----------------------|----------------------| 
|----------3------0----|----------5-----------|   x13 
|----0-------0------0--|----5-------5---5-----| 
|--0---0-0-----0-------|--5---5-5-----5---5---| 

Enjoy! 
    	
fixar
fixar inscrever-se

enviado porenviado por: abelamin
cifra enviadaCorrigida por: sem correções
logo top cifrasComente
ico música do artistaMúsicas deste artista
ico curtiuCurtiu?
ico destaqueDestaque
Petaxxon Comunicação Online

Cifras.com.br - Melhor e mais completo site de cifras e tablaturas do Brasil Mais de 1 milhão de acordes de músicas cadastradas desde 2003
As informações contidas no nosso site são colaborações de seus usuários e podem conter erros, sendo assim, não nos responsabilizamos sobre nenhuma destas.

close
menos
mais
close
Cor dos acordes:

Cor da letra:

close
Alinhar acordes a direita Alinhar acordes a esquerda Alinhar acordes em baixo Alinhar acordes no topo
close
  Mostrar todos os acordes Esconder acordes muito fáceis Esconder acordes fáceis Esconder acordes intermediários
redimensionar
glossário