Cifras e Tablaturas
Violent Soho

Violent Soho

Gold Coast

Cifras Cancelar Versão de Impressão Print

Violent Soho - Gold Coast

Tom: D

  			

Tuning:drop D 
                Verse: 

e|---------------------------------------------------------------------------| 
B|---------------------------------------------------------------------------| 
G|---------------------------------------------------------------------------| 
D|---------------------------------------------------------------------------| 
A|-5-5-5-5-5-5-5-5---1-1-1-1-1-1-1-1----0-0-0-0-0-0-0-0---5-5-5-5-5-5-5-5----| 
D|-5-5-5-5-5-5-5-5---1-1-1-1-1-1-1-1----0-0-0-0-0-0-0-0---3-3-3-3-3-3-3-3----| 


            Chorus; 

e|---------------------------------------------------------------------------| 
B|---------------------------------------------------------------------------| 
G|---------------------------------------------------------------------------| 
D|--------------------3-3-3-3------------------------------------------------| 
A|--5-5-5-5--1-1-1-1--1-1-1-1--5-5-5-5---------------------------------------| 
D|--5-5-5-5--1-1-1-1-----------3-3-3-3---------------------------------------| 



lead over second verse 2 bars 
e|---------------------------------------------------------------------------| 
B|--8~-8~-8~-8~--------------------------------------------------------------| 
G|---------------------------------------------------------------------------| 
D|--0--0--0--0---------------------------------------------------------------| 
A|---------------------------------------------------------------------------| 
D|---------------------------------------------------------------------------| 



Im not asking : 
e|---------------------------------------------------------------------------| 
B|---------------------------------------------------------------------------| 
G|---------------------------------------------------------------------------| 
D|---------------------------------------------------5-5-5-5-5-5-5-5-5-5-5-5-| 
A|--5-5-5-5-5-5-5-5-5-5-5-5--1-1-1-1-1-1-1-1-1-1-1-1-3-3-3-3-3-3-3-3-3-3-3-3- 
D|--5-5-5-5-5-5-5-5-5-5-5-5--1-1-1-1-1-1-1-1-1-1-1-1-------------------------| 

a lot better editing then my first tab. 
    	
fixar
fixar inscrever-se

enviado porenviado por: victborges
cifra enviadaCorrigida por: sem correções
logo top cifrasComente
ico música do artistaMúsicas deste artista
ico curtiuCurtiu?
ico destaqueDestaque
Petaxxon Comunicação Online

Cifras.com.br - Melhor e mais completo site de cifras e tablaturas do Brasil Mais de 1 milhão de acordes de músicas cadastradas desde 2003
As informações contidas no nosso site são colaborações de seus usuários e podem conter erros, sendo assim, não nos responsabilizamos sobre nenhuma destas.

close
menos
mais
close
Cor dos acordes:

Cor da letra:

close
Alinhar acordes a direita Alinhar acordes a esquerda Alinhar acordes em baixo Alinhar acordes no topo
close
  Mostrar todos os acordes Esconder acordes muito fáceis Esconder acordes fáceis Esconder acordes intermediários
redimensionar
glossário