Cifras e Tablaturas
Vox Dei

Vox Dei

A Minh'alma

Cifras Cancelar Versão de Impressão Print

Vox Dei - A Minh'alma

Tom:

  			Intro 

 
E|--------------9-11-12-11---------7/9--------------------------------------------------| 
B|---------12--------------12-12------------9-9h10--9h10p9------9--------9-------12-----| 
G|----9/11----9------------------9-----9-11----------------11-9------------11-11----11--| 
D|--9-------------------------------------------------------------9-9--9----------------| 
A|--------------------------------------------------------------------------------------| 
E|--------------------------------------------------------------------------------------| 
 

 
E|--------------9-11-12-11---------7/9-------------------------------------| 
B|---------12--------------12-12------------9-9h10--9h10p9------9--------9-| 
G|----9/11----9------------------9-----9-11----------------11-9------------| 
D|--9-------------------------------------------------------------9-9--9---| 
A|-------------------------------------------------------------------------| 
E|-------------------------------------------------------------------------| 
 

 
E|----------------------10/12-10-10-12--------| 
B|------------9-10--12-----------------12/14--| 
G|-------9-11---------------------------------| 
D|--9-11--------------------------------------| 
A|--------------------------------------------| 
E|--------------------------------------------| 
    	
fixar
fixar inscrever-se

enviado porenviado por: fernsantana
cifra enviadaCorrigida por: sem correções
logo top cifrasComente
ico música do artistaMúsicas deste artista
ico curtiuCurtiu?
ico destaqueDestaque
Petaxxon Comunicação Online

Cifras.com.br - Melhor e mais completo site de cifras e tablaturas do Brasil Mais de 1 milhão de acordes de músicas cadastradas desde 2003
As informações contidas no nosso site são colaborações de seus usuários e podem conter erros, sendo assim, não nos responsabilizamos sobre nenhuma destas.

close
menos
mais
close
Cor dos acordes:

Cor da letra:

close
Alinhar acordes a direita Alinhar acordes a esquerda Alinhar acordes em baixo Alinhar acordes no topo
close
  Mostrar todos os acordes Esconder acordes muito fáceis Esconder acordes fáceis Esconder acordes intermediários
redimensionar
glossário