Cifras e Tablaturas
Waldir Azevedo

Waldir Azevedo

Brasileirinho (versão 2)

Cifras Cancelar Versão de Impressão Print

Waldir Azevedo - Brasileirinho (versão 2)

Tom:

  • 0:00 / 0:00
  			 
Se vc não conseguir de primeira, tente de novo, pois essa musica demora pra ser aprendida e é 
dificil!! 
 
 
 
1ª parte: 
 
 
                 3 vezes   4 vezes   2 vezes 
               /        \ /       \/        \ 
e|--9--9--9--9-|-0--5--9--|-0--5--8-|-0--5--9-|--9--9--8--8--7--7--6--5| 
B|-------------|----------|---------|---------|------------------------| 
G|-------------|----------|---------|---------|------------------------| 
D|-------------|----------|---------|---------|------------------------| 
A|-------------|----------|---------|---------|------------------------| 
E|-------------|----------|---------|---------|------------------------| 
 
 
 /     2 vezes      \   / 2 vezes  \ 
/                    \ /            \ 
e|--0--2--3--4--3--2--0|--5--4--2--0-|----------------------------0--2|--4--2--0-----2--0--------| 
B|---------------------|-------------|-3--2--0--------------0--3------|-----------4-------4--3--2| 
G|---------------------|-------------|----------2--1-----1------------|--------------------------| 
D|---------------------|-------------|----------------2---------------|--------------------------| 
A|---------------------|-------------|--------------------------------|--------------------------| 
E|---------------------|-------------|--------------------------------|--------------------------| 
 
 
 
2ª parte 
 
    3 vezes       3 vezes      2 vezes 
 /           \ /          \ /          \ 
e|--0--2--3--4-|-0--2--4--5-|-0--2--3--4-|-0--2--0-----------------| 
B|-------------|------------|------------|----------3--2--0--2-----| 
G|-------------|------------|------------|----------------------2--| 
D|-------------|------------|------------|-------------------------| 
A|-------------|------------|------------|-------------------------| 
E|-------------|------------|------------|-------------------------| 
 
 
3ª parte 
 
      2 vezes           3 vezes                                                      * 
 /                 \ /           \                                                /     \ 
e|-------------------|--0--1--0----|--------------------0--1--3--1--3--1--3--1--1-|-1h3p1-|--0---| 
B|--------0--1--0----|-----------3-|--1--0--------0--3----------------------------|-------|------| 
G|-----2-----------2-|-------------|-----------1----------------------------------|-------|------| 
D|--2----------------|-------------|--------2-------------------------------------|-------|------| 
A|-------------------|-------------|----------------------------------------------|-------|------| 
E|--------------------------------------------------------------------------------|-------|------| 
 
 
                                  /          ponte            \ 
e|--5--4--3--2--1--0--------------|-----5-----5-----5----------|--1--1--1--1--0--0---------------| 
B|--------------------4-----------|--3-----3-----3-----3--3/1\-|--------------------3--1--0--2---| 
G|--------------------------------|----------------------------|--------------------------------2| 
D|--------------------------------|----------------------------|---------------------------------| 
A|--------------------------------|----------------------------|---------------------------------| 
E|--------------------------------|----------------------------|---------------------------------| 
                                            
                                            * 
                                         /     \                                    
e|--------------0--1--3--1--3--1--3--1--1|-1h3p1-|--0--|------------------------|----------------| 
B|--------0--3---------------------------|-------|-----|--------0--1--0---------|--5--3--2--0----| 
G|-----1---------------------------------|-------|-----|-----2-----------2--0---|--------------1-| 
D|--2------------------------------------|-------|-----|--2--------------------3|----------------| 
A|---------------------------------------|-------|-----|------------------------|----------------| 
E|---------------------------------------|-------|-----|------------------------|----------------| 
      
  
e|--------------| 
B|-----ponte----| 
G|--------------| 
D|--------------| 
A|--------------| 
E|--------------| 
 
 
                 3 vezes   4 vezes   2 vezes                              4 vezes 
               /        \ /       \/        \                          /          \ 
e|--9--9--9--9-|-0--5--9--|-0--5--8-|-0--5--9-|--9--9--8--8--7--7--6--5|--5--4--2--0|-5--5--5| 
B|-------------|----------|---------|---------|------------------------|------------|--------| 
G|-------------|----------|---------|---------|------------------------|------------|--------| 
D|-------------|----------|---------|---------|------------------------|------------|--------| 
A|-------------|----------|---------|---------|------------------------|------------|--------| 
E|-------------|----------|---------|---------|------------------------|------------|--------| 
 
Termina com esse lá maior 
 
e|--5--| 
B|--5--| 
G|--6--| 
D|--7--| 
A|--7--| 
E|--5--| 
 
 
 
   * 
/     \ = Opcional, se não quiser, passe pra próxima parte sem * 
 
  
_______________________________________________________ 
Contribuição: Renan Gemignani([email protected]) 

    	

enviado porenviado por: anônimo
cifra enviadaCorrigida por: sem correções
logo top cifrasComente
ico música do artistaMúsicas deste artista
ico curtiuCurtiu?
ico destaqueDestaque
Petaxxon Comunicação Online

Cifras.com.br - Melhor e mais completo site de cifras e tablaturas do Brasil Mais de 1 milhão de acordes de músicas cadastradas desde 2003
As informações contidas no nosso site são colaborações de seus usuários e podem conter erros, sendo assim, não nos responsabilizamos sobre nenhuma destas.

close
menos
mais
close
Cor dos acordes:

Cor da letra:

close
Alinhar acordes a direita Alinhar acordes a esquerda Alinhar acordes em baixo Alinhar acordes no topo
close
  Mostrar todos os acordes Esconder acordes muito fáceis Esconder acordes fáceis Esconder acordes intermediários
redimensionar
glossário