Cifras e Tablaturas
Walk Off The Earth

Walk Off The Earth

I Got You Babe

Cifras Cancelar Versão de Impressão
cifras

Walk Off The Earth - I Got You Babe

fixar na tela  
Exibindo: vídeo-aula ver clipes redimensionar

Tom:

  
Capo: 6

verse 1 

e|-----------3-----------------------3--------|--3-------------------------2------3-----2-----0-----| 
B|------3-------3----3-------3----3-----3-----|----3---3-----3---3--3---3--3--3-----3-----3-----3---| 
G|--0---0---------0----0--------0----------0--|------0---0-----0------0---------2-----2-----2-----2-| 
D|--0---2-----------------0----------2--------|------------0----------------------------------------| 
A|--2---3------------2-------3----------------|--------2-----3------2-------------------------------| 
E|--3--------3--------------------------------|--3-------------------------2------------2-----------| X2 
             They say were young......           We won't find out........ 


Chorus 1  

e|-----------------------------------------------2------3------2-----0------------------------------| 
B|--3---3-------3-------3-------3-------3----3-----3------3------3-----3----------------------------| 
G|--0---0-------0---0---0-------0---0---0----0-------2------2------2-----2--------------------------| 
D|------2---0-----------2---0-----------2-----------------------------------------------------------| 
A|--2---3-------2-------3-------2-------3----2------------------------------------------------------| 
E|--3-----------3---------------3----------------2-------------2------------------------------------| 
    Babe, I got you babe..... 


verse 2 (Strum as per song) 

e|--3----3---------3----3----3----2----3----2----0--|--3----3----3----3----3----2----3----2---------| 
B|--3----3---------3----3----3----3----3----3----3--|--3----3----3----3----3----3----3----3---------| 
G|--0----0---------0----0----0----2----2----2----2--|--0----0----0----0----0----2----2----2---------| 
D|--0----2---0h2---0----2----0----0----0----0----0--|--0----2----0----2----0----0----0----0---------| 
A|--2----3---------2----3----2----0----0----0----0--|--2----3----2----3----2----0----0----0---------| 
E|--3--------------3--------------2----2----2----2--|--3---------3--------------2----2----2---------| 
    They say our love wont pay the rent....            I guess thats so....... 


Chorus 2 (Strum as per song) 

e|--3---------3----3---------3----3---------3----3----2----3----2-----------------------------------| 
B|--3---------3----3---------3----3---------3----3----3----3----3-----------------------------------| 
G|--0---------0----0---------0----0---------0----0----2----2----2-----------------------------------| 
D|--0---------2----0---------2----0---------2----0----0----0----0-----------------------------------| 
A|--2---0h2---3----2---0h2---3----2---0h2---3----2----0----0----0-----------------------------------| 
E|--3--------------3--------------3-------------------2----2----2-----------------------------------| 
    Babe, I got you babe...... 

Interlude 

e|-----------0------------------0------------------2-------2----------------------------------------| 
B|--------------1------------------1------------3-----3-------3------------3------------------------| 
G|--------2--------2--------2---------2------2-----------2-------2------2---------------------------| 
D|-----2-----------------2----------------0--------------------------0------------------------------| 
A|--0-----------------0-----------------------------------------------------------------------------| 
E|--------------------------------------------------------------------------------------------------| 
    I got flowers....                                                            

                                                                                Begin strumming.. 
e|-----------0------------------0------------------2-------3---------2-------|--3---0---0---2-------| 
B|--------------1------------------1------------3-----3-------3---------3----|--3---1---1---3---8---| 
G|--------2--------2--------2---------2------2-----------2-------2---------2-|--0---0---0---2---8---| 
D|-----2-----------------2----------------0----------------------------------|--0---2---2---0---8---| 
A|--0-----------------0------------------------------------------------------|--2---3---3-------6---| 
E|---------------------------------------------------------------------------|--3-------------------| 
    I got you to wear.....                                                      And when its sad.. 

verse 3 (Strum as per song) - Capo moves from 6 to 7 fret 

e|--3----3----3----3----3----2----3----2------------------------------------------------------------| 
B|--3----3----3----3----3----3----3----3------------------------------------------------------------| 
G|--0----0----0----0----0----2----2----2------------------------------------------------------------| 
D|--0----2----0----2----0----0----0----0------------------------------------------------------------| 
A|--2----3----2----3----2----0----0----0------------------------------------------------------------| 
E|--3---------3--------------2----2----2------------------------------------------------------------| X2 
    So let me say....  

Chorus 3 (Strum as per song) 

e|--3---------3----3---------3----3---------3----3----2----3----2-----------------------------------| 
B|--3---------3----3---------3----3---------3----3----3----3----3-----------------------------------| 
G|--0---------0----0---------0----0---------0----0----2----2----2-----------------------------------| 
D|--0---------2----0---------2----0---------2----0----0----0----0-----------------------------------| 
A|--2---0h2---3----2---0h2---3----2---0h2---3----2----0----0----0-----------------------------------| 
E|--3--------------3--------------3-------------------2----2----2-----------------------------------| 
    Babe, I got you babe..... 

Pre Chorus 

e|--3---3---3---2----12+--|-3---3-------3---2---3---0---3---2---3---0---3---2---2---0---3---2-------| 
B|--3---3---3---3----12+--|-3---3-------3---3---3---1---3---3---3---1---3---3---3---1---3---3-------| 
G|--0---0---0---2----12+--|-0---0-------0---2---0---0---0---2---0---0---0---2---0---0---0---2-------| 
D|--0---2---0---0----12+--|-0---2--0h2--0---0---0---2---0---0---0---2---0---0---0---2---0---0-------| 
A|--2---3---2-------------|-2---3-------2-------2---3---2-------2---3---2-------2---3---2-----------| 
E|--3-------3-------------|-3-----------3-------3-------3-------3-------3-------3-------3-----------| 
                            I got you to hold my hand..... 
Outro 

e|--0----3----0----0----0----3---------||-----------------------------------------------------------| 
B|--1----3----1----1----1----3---------||-----------------------------------------------------------| 
G|--0----0----0----0----0----0---------||-----------------------------------------------------------| 
D|--2----0----2----0----0----0---------||-----------------------------------------------------------| 
A|--3----2----3----2----0----0h2-------||-----------------------------------------------------------| 
E|-------3-------------------3---------||-----------------------------------------------------------| 
    I got you babe...       Hold  
  

top 5 | walk off the earth
top rock alternativo
Outras músicas do artista letras do(a) Walk Off The Earth
4.
Rude
Top cifras »Top artistas »
Petaxxon Comunicação Online
Cifras.com.br - Melhor e mais completo site de cifras e tablaturas do Brasil
Mais de 1 milhão de acordes de músicas cadastradas desde 2003
As informações contidas no nosso site são colaborações de seus usuários e podem conter erros, sendo assim, não nos responsabilizamos sobre nenhuma destas.
close
menos
mais
close
Cor dos acordes:

Cor da letra:

 

save
close
close
 
redimensionar