Cifras e Tablaturas
Walk The Moon

Walk The Moon

Headphones

Cifras Cancelar Versão de Impressão
cifras

Walk The Moon - Headphones

fixar na tela  
Exibindo: vídeo-aula ver clipes redimensionar

Tom:

  
Verse 
0:21 
"...phones..." 
D|---------------------------------------------------------------------------| 
A|---------------------------------------------------------------------------| 
F|---5-5--7-7-----------------------5-5--7-7---------------------------------| 
C|---5-5--7-7--0--x-x-0--0--x-x-----5-5--7-7--0--x-x-0--0--x-x---------------| 
G|---3-3--5-5--0--x-x-0--0--x-x-----3-3--5-5--0--x-x-0--0--x-x---------------| 
D|-------------0--x-x-0--0--x-x---------------0--x-x-0--0--x-x---------------| 

D|---------------------------------------------------------------------------| 
A|---------------------------------------------------------------------------| 
F|---5-5--7-7-----------------------5-5--7-7---------------------------------| 
C|---5-5--7-7--0--x-x-0--0--x-x-----5-5--7-7--0--7-7-7-7-7-7-7---------------|  
G|---3-3--5-5--0--x-x-0--0--x-x-----3-3--5-5--0--5-5-5-5-5-5-5---------------| 
D|-------------0--x-x-0--0--x-x---------------0------------------------------| 

Chorus 
0:40 
"Ohh..." 
D|---------------------------------------------------------------------------| 
A|---------------------------------------------------------------------------| 
F|---7---------10---------12---------14--------17----------------------------| 
C|---x-(x16)---x--(x16)---x--(x16)---x--(x8)---x--(x8)-----------------------| 
G|---5---------8----------10---------12--------15----------------------------| 
D|---------------------------------------------------------------------------| 

0:53 
D|---------------------------------------------------------------------------| 
A|---11--11--11--11--11------------------------------------------------------| 
F|---13b-13b-13b-13b-13r-----------------------------------------------------| 
C|---------------------------------------------------------------------------| 
G|---------------------------------------------------------------------------| 
D|---------------------------------------------------------------------------| 

Verse 
1:00 
"...out..." 
D|---------------------------------------------------------------------------| 
A|---------------------------------------------------------------------------| 
F|---5-5--7-7-----------------------5-5--7-7---------------------------------| 
C|---5-5--7-7--0--x-x-0--0--x-x-----5-5--7-7--0--x-x-0--0--x-x---------------| 
G|---3-3--5-5--0--x-x-0--0--x-x-----3-3--5-5--0--x-x-0--0--x-x---------------| 
D|-------------0--x-x-0--0--x-x---------------0--x-x-0--0--x-x---------------| 

D|---------------------------------------------------------------------------| 
A|-------------------8--8----------------------------------------------------| 
F|---5-5--7-7--------10-10b---------5-5--7-7---------------------------------| 
C|---5-5--7-7--0--x-----------------5-5--7-7--0--7-7-7-7-7-7-7---------------|  
G|---3-3--5-5--0--x-----------------3-3--5-5--0--5-5-5-5-5-5-5---------------| 
D|-------------0--x---------------------------0------------------------------| 


Chorus 
1:20 
"Ohh..." 
D|---------------------------------------------------------------------------| 
A|---------------------------------------------------------------------------| 
F|---7---------10---------12---------14--------17----------------------------| 
C|---x-(x16)---x--(x16)---x--(x16)---x--(x8)---x--(x8)-----------------------| 
G|---5---------8----------10---------12--------15----------------------------| 
D|---------------------------------------------------------------------------| 

Solo 
2:05 
D|---------------------------------------------------------------------------| 
A|---14p10----14-14p10----14-14p10----14p10----14p10----14-14p10-------------| 
F|---------12----------12----------12-------12-------12----------12----------| 
C|---------------------------------------------------------------------------| 
G|---------------------------------------------------------------------------| 
D|---------------------------------------------------------------------------| 
he kind of just goes crazy after this part 

Chorus 
2:16 
"Ohh..." 
D|---------------------------------------------------------------------------| 
A|---------------------------------------------------------------------------| 
F|---7---------10---------12---------14--------17----------------------------| 
C|---x-(x16)---x--(x16)---x--(x16)---x--(x8)---x--(x8)-----------------------| (x2) 
G|---5---------8----------10---------12--------15----------------------------| 
D|---------------------------------------------------------------------------| 

Outro 
2:39 
"...way..." 
D|---------------------------------------------------------------------------| 
A|---------------------------------------------------------------------------| 
F|---5--7----------------------5--7------------------------------------------| 
C|---5--7--0-------------------5--7--0---------------------------------------| 
G|---3--5--0--5-3-0-3-0--------3--5--0--5-3-0-3-0----------------------------| 
D|---------0------------5-3----------0------------5-3------------------------| 

D|---------------------------------------------------------------------------| 
A|---------------------------------------------------------------------------| 
F|---5--7----------------------5---------------------------------------------| 
C|---5--7--0-------------------5--0--2--5--7--10-----------------------------| 
G|---3--5--0--5-3-0-3-0--------3--0--2--5--7--10-----------------------------| 
D|---------0----------------------0--2--5--7--10-----------------------------| 

2:51 
"Ohh..." 
D|---------------------------------------------------------------------------| 
A|---------------------------------------------------------------------------| 
F|---10--7----------------------10--7----------------------------------------| 
C|---10--7--0-------------------10--7--0-------------------------------------| 
G|---8---5--0--5-3-0-3-0--------10--5--0--5-3-0-3-0--------------------------| 
D|----------0------------5-3-----------0------------5-3----------------------| 

D|---------------------------------------------------------------------------| 
A|---------------------------------------------------------------------------| 
F|---10--7----------------------5-5--7-7-------------------------------------| 
C|---10--7--0-------------------5-5--7-7--0--x-x-0--0------------------------| 
G|---8---5--0--5-3-0-3-0--------3-3--5-5--0--x-x-0--0------------------------| 
D|----------0------------5-3--------------0--x-x-0--0------------------------| 


************************************ 

| x   Dead note 
| h   Hammer-on 
| p   Pull-off 
| b   Bend 
| r   Release 

************************************ 
  

top 5 | walk the moon
top pop music
Outras músicas do artista letras do(a) Walk The Moon
Top cifras »Top artistas »
Petaxxon Comunicação Online
Cifras.com.br - Melhor e mais completo site de cifras e tablaturas do Brasil
Mais de 1 milhão de acordes de músicas cadastradas desde 2003
As informações contidas no nosso site são colaborações de seus usuários e podem conter erros, sendo assim, não nos responsabilizamos sobre nenhuma destas.
close
menos
mais
close
Cor dos acordes:

Cor da letra:

 

save
close
close
 
redimensionar