Cifras e Tablaturas
Waterparks

Waterparks

Fantastic

Cifras Cancelar Versão de Impressão

Waterparks - Fantastic

Tom: D

  			----------------------------------------------------------------------------- 
                        FANTASTIC - Waterparks  
----------------------------------------------------------------------------- 
Tuning: Drop D (DADGBe) 

An oldie from their first release, Airplane Conversations (2012). Enjoy! 

Here's my cover on YouTube!: https://youtu.be/qR9wkqoNVpU 

Guitar 1 - Awsten Knight 
Guitar 2 - Geoff Wigington 

Intro 

Guitar 1 
e|--------------------------------2x-| 
B|-----------------------------------| 
G|-7-----6---------------------------| 
D|-7--x8-7--x8-4-----7-7-7-7-6-6-6-6-| 
A|-5-----4-----4--x8-7-7-7-7-7-7-7-7-| 
D|-------------4-----7-7-7-7-6-6-6-6-| 

Guitar 2 
e|-------------------2~------------2~------------------------------------------------------------------------| 
B|------2~--------------2---2---------2----------2---------------------------------------------14/17t--14t---| 
G|---------2--------------2---------------2------2--------/14~--14t--14/16~--16t--16/18~--18t----------------| 
D|-4~-4------4~-3~-3----------4~-4------4------4------6/7--------------------------------------11/14t--11t---| 
A|------------------------------------------0~------------/12~--12t--12/14~--14t--14/16~--16t----------------| 
D|-------------------------------------------------6~--------------------------------------------------------| 

verse 1/PreChorus 

Guitar 1 
e|------------------------------------------------------||--------------------------|-1./3.-|---2.----|| 
B|----------7~------------------------------------------||--------------------------|-------|---------|| 
G|-7~~~~~~~~~~-----------------------9~------7~---6~----||--7-7----11-11---14-14----|-11-11-|-(pause)-|| 
D|-7~~~~~~~~~~--7~--------7~----------------------------||--7-7----11-11---14-14----|-11-11-|---------|| 
A|-5~~~~~~~~~~------------------------------------------||--5-5----9--9----12-12----|-9--9--|---------|| 
D|------------------------------------------------------||--------------------------|-------|---------|| 

e|----------------------------||--------------------------|-1./3.-|---2.----||------------------------|| 
B|----------------------------||--------------------------|-------|---------||------------------------|| 
G|-7-7-7-7-11-11-11-11-14-----||--7-7----11-11---14-14----|-11-11-|-(pause)-||-7-7-7-7-9-9-9-9-11-----|| 
D|-------------------------x8-||--7-7----11-11---14-14----|-11-11-|---------||---------------------x8-|| 
A|-5-5-5-5-9--9--9--9--12-----||--5-5----9--9----12-12----|-9--9--|---------||-5-5-5-5-7-7-7-7--9-----|| 
D|----------------------------||--------------------------|-------|---------||------------------------|| 

Guitar 2 
e|------------------------------------------------------||--------------------------|-1./3.-|-(5x)~-2.-|| 
B|------------------------------------------------14~---||-------------------14-14--|-------|-(5x)~----|| 
G|-14~-----------/14~-13~-11~--------13~-----14~--------||-11-11----14-14-----------|-14-14-|-(5x)~----|| 
D|------------------------------------------------11~---||-------------------11-11--|-------|-(5x)~----||  
A|-12~-----------/12~-11~-9~---------11~-----12~--------||-9--9-----12-12-----------|-12-12-|-(5x)~----|| 
D|------------------------------------------------------||--------------------------|-------|-(5x)~----|| 
                                                                                              upstroke^ 
e|--------------------------------||---------------------------|-1./3.-|----2.--||--------------------------| 
B|-------------------------14-----||------------------14-14----|-------|--------||-------------------14-----| 
G|-11-11-11-11-13-13-13-13-----x8-||-11-11---14-14-------------|-14-14-|-(pause)||-11111111-13131313-----x8-| 
D|-------------------------11-----||------xx-------xx-11-11-xx-|-------|--------||-------------------11-----| 
A|-9--9--9--9--11-11-11-11--------||-9--9-xx-12-12-xx-------xx-|-12-12-|--------||-9-9-9-9--11111111--------| 
D|--------------------------------||------xx-------xx-------xx-|-------|--------||--------------------------| 

Chorus 

Guitar 1 
e|-------------------------------------------------------------------------------------| 
B|-------------------------------------------------------------------------------------| 
G|-11~---9~---6~------9~---6~---2~--------------7~-----------------------11~-----------| 
D|-11~---9~----------------------------4~----7~-7~--7~---------4~----2~--11~-7~--------| 
A|-9~----7~---4~------7~---4~---0~-----4~----7~-5~--7~---------4~----2~--9~--7~--------| 
D|-------------------------------------4~----7~-----7~---------4~----2~------7~--------| 

Guitar 2 
e|----------------------------------------------------------------------------------------------------| 
B|----------------------------------------------------------------------------------------------------| 
G|-6~---4~---2~-----6~-----9~----6~----11~---9~-7~--6~----\4~--6~----9~--7~--6~-/9~-/11~-14-14-14-14--| 
D|----------------------------------------------------------------------------------------------------| 
A|-4~---2~---0~-----4~-----7~----4~----9~----7~-5~--4~----\2~--4~----7~--5~--4~-/7--/9~--12-12-12-12--| 
D|----------------------------------------------------------------------------------------------------| 

PreChorus 2 (same as preChorus 1) 

Guitar 1, 2x 
e|-------------------------|-1./3.-|---2.----||-----------------------|| 
B|-------------------------|-------|---------||-----------------------|| 
G|-7-7----11-11---14-14----|-11-11-|-(pause)-||-7-7-7-7-9-9-9-9-11----|| 
D|-7-7----11-11---14-14----|-11-11-|---------||--------------------x8-|| 
A|-5-5----9--9----12-12----|-9--9--|---------||-5-5-5-5-7-7-7-7-9-----|| 
D|-------------------------|-------|---------||-----------------------|| 

Guitar 2 
e|--------------------------|-1./3.-|-(5x)~-2.-||--------------------------------|| 
B|-------------------14-14--|-------|-(5x)~----||-------------------------14-----|| 
G|-11-11----14-14-----------|-14-14-|-(5x)~----||-11-11-11-11-13-13-13-13-----x8-|| 
D|-------------------11-11--|-------|-(5x)~----||-------------------------11-----|| 
A|-9--9-----12-12-----------|-12-12-|-(5x)~----||-9--9--9--9--11-11-11-11--------|| 
D|--------------------------|-------|-(5x)~----||--------------------------------|| 
                                 upstroke^ 
e|---------------------------|-1./3.-|--------||--------------------------------| 
B|------------------14-14----|-------|--------||-------------------------14-----| 
G|-11-11---14-14-------------|-14-14-|-(pause)||-11-11-11-11-13-13-13-13-----x8-| 
D|------xx-------xx-11-11-xx-|-------|--------||-------------------------11-----| 
A|-9--9-xx-12-12-xx-------xx-|-12-12-|--------||-9--9--9--9--11-11-11-11--------| 
D|------xx-------xx-------xx-|-------|--------||--------------------------------| 

Chorus 
  
Guitar 1 
e|------------------2x-|------------------------------|------------------------------| 
B|---------------------|------------------------------|------------------------------| 
G|-11-----9-----7------|---------------7-7-7-7--------|-----------------------7------| 
D|-11--x8-9--x8-7--x16-|-4-----6-6-6-6-7-7-7-7-7------|-4-----2-2-2-2-4-4-4-4-7--x16-| 
A|-9------7-----5------|-4--x8-7-7-7-7-5-5-5-5-7--x16-|-4--x8-2-2-2-2-4-4-4-4-5------| 
D|---------------------|-4-----6-6-6-6---------7------|-4-----2-2-2-2-4-4-4-4--------| 

Guitar 2 
e|--------0~------------0~----------0~-------0~-------|-----------------------------------------------------| 
B|-------------------------------------2~-------------|-----------------------------------------------------| 
G|-------------------------6~----6~-------2~-------2~-|-11-----9------9~/11~-11-11-11-11-9999-11111111-7----| 
D|----11~----11~-9~-7~--------------------------4~----|----x16----x16------------------------------------x8-| 
A|-9~-------------------------7~----------------------|-9------7------7~/9~--9--9--9--9--7777-9-9-9-9--5----| 
D|-------------------------------------------------2x-|-----------------------------------------------------| 

Bridge (1:59) 

Guitar 1 
e|--------------------------------------------------------| 
B|--------------------------------------------------------| 
G|-9------4------------7-----14------9------------7-------| 
D|----x16-4--x8-4------7--x8-----x16-9--x8-4------7--x8---| 
A|-7------2-----4--x16-5-----12------7-----4--x16-5-------| 
D|--------------4--------------------------4--------------|  

Guitar 2 
e|---------|-----------------------------17~\-|--------------------9~-----|-------------17~-----------------|| 
B|---------|---------14~---------14~----------|-------------10~-------10~-|-----------------14~-----14~-----|| 
G|-(pause)-|-14~-14~-----14~-14~-----14~------|-9~-9~-9~-9~-----9~--------|-14~-14~-14~---------14~-----14~-|| 
D|---------|----------------------------------|---------------------------|---------------------------------|| 
A|---------|----------------------------------|---------------------------|---------------------------------|| 
D|---------|----------------------------------|------------------------1.-|------------------------------2.-|| 

e|--------------3x-|-------------16~-14~------------| 
B|-----14~---------|-----14~--------------14~-------| 
G|-14~-----14~-----|-14~-----14~----------------14~-| 
D|-------------14~-|--------------------------------| 
A|-----------------|--------------------------------| 
D|-----------------|--------------------------------| 

PreChorus 3 

Guitar 1, 2x                                      V On repeat play this 3x instead of 1x   V triplets V 
e||--------------------------|-1./3.-|---2.----||------------------------||------------------------| 
B||o-------------------------|-------|---------||-----------------------o||------------------------| 
G||--7-7----11-11---14-14----|-11-11-|-(pause)-||-7-7-7-7-9-9-9-9-11-----||-7-7-7-7-9-9-9-9-11~----| 
D||--------------------------|-------|---------||--------------------x8--||---------------------x6-| 
A||o-5-5----9--9----12-12----|-9--9--|---------||-5-5-5-5-7-7-7-7-9-----o||-5-5-5-5-7-7-7-7-9~-----| 
D||--------------------------|-------|---------||------------------------||------------------------| 

Guitar 2 
e|-----------------------|-1.------|-----------||----------------------------------------------------------|| 
B|------------------1414-|---------|-x-14--14~-||-----------------1414------------------------------14-----|| 
G|-1111----1414----------|----1414-|-x---------||-1111----1414------------1414----11111111-14141414-----x8-|| 
D|------------------1111-|---------|-x-11--11~-||------xx------xx-1111-xx------xx-------------------11-----|| 
A|-9-9-----1212----------|----1212-|-----------||-9-9--xx-1212-xx------xx-1212-xx-9-9-9-9--12121212--------|| 
D|-----------------------|---------|--------2.-||------xx------xx------xx------xx--------------------------|| 
                                 upstroke^                                                        V triplets V 
e|------------------------|-1./3.|---2.-||-----------------------------3x-|---------------------------------| 
B|----------------1414----|------|------||-------------------------14-----|-------------------------14~-----| 
G|-1111---1414------------|-1414-|------||-11-11-11-11-13-13-13-13-----x8-|-11-11-11-11-13-13-13-13-----x6--| 
D|-----xx------xx-1111-xx-|------|-xxxx-||-------------------------11-----|-------------------------11~-----| 
A|-9-9-xx-1212-xx------xx-|-1212-|-xxxx-||-9--9--9--9--11-11-11-11--------|-9--9--9--9--11-11-11-11---------| 
D|-----xx------xx------xx-|------|-xxxx-||--------------------------------|---------------------------------| 

Outro 

Guitar 1 
e|--------------------------------------------------------------------------------| 
B|--------------------------------------------------------------------------------| 
G|--------------------------------------------------------------------------------| 
D|-4------7-----6-----4-4-4-4-4---------7-----6-----4------7-----6----------------| 
A|-4--x16-7--x8-7--x8-4-4-4-4-4-(pause)-7--x8-7--x8-4--x16-7--x8-7--x8-(silence)--| 
D|-4------7-----6-----4-4-4-4-4---------7-----6-----4------7-----6----------------| 

Guitar 2 (orchestra transcribed to guitar) 
e|-------------------------9~------|-------1./2.-|-----------------------3.-||--------------------2x-|| 
B|-----10~-----10------10~----10---|-------------|---------14~--------------||-10~------14~--10~-----|| 
G|-11~-----------11-------------11-|-13~----9~---|-14~-----------13~---9~---||-11~-----------9~------|| 
D|---------11~-----11~-------------|-------------|---------11~--------------||----------11~--7~------|| 
A|---------------------------------|-11~----7~---|-12~-----------11~---7~---||-9~------------7~------|| 
D|---------------------------------|-------------|-----------------------4x-||-----------------------|| 
____________________________________________________________________________________________________________ 
~ - let note ring 
x - mute note 
h - hammer on 
/ or \ - slide 
||o---o|| - repeat section 
(5x)~ - lay finger across 5th fret and strum 
    	
fixar
fixar inscrever-se

enviado porenviado por: aman_claudino
cifra enviadaCorrigida por: sem correções
logo top cifrasComente
ico música do artistaMúsicas deste artista
ico curtiuCurtiu?
ico destaqueDestaque
Petaxxon Comunicação Online

Cifras.com.br - Melhor e mais completo site de cifras e tablaturas do Brasil Mais de 1 milhão de acordes de músicas cadastradas desde 2003
As informações contidas no nosso site são colaborações de seus usuários e podem conter erros, sendo assim, não nos responsabilizamos sobre nenhuma destas.

close
menos
mais
close
Cor dos acordes:

Cor da letra:

close
Alinhar acordes a direita Alinhar acordes a esquerda Alinhar acordes em baixo Alinhar acordes no topo
close
  Mostrar todos os acordes Esconder acordes muito fáceis Esconder acordes fáceis Esconder acordes intermediários
redimensionar
glossário