Cifras e Tablaturas
We Live No More

We Live No More

Nothing To Lose

Cifras Cancelar Versão de Impressão
cifras

We Live No More - Nothing To Lose

fixar na tela  
Exibindo: vídeo-aula ver clipes redimensionar

Tom:

  
Intro:  

Riff I 
e|-----------------------------------| 
B|-----------------------------------| 
G|-----------------------------------| 
D|-3---3-2---2-3-------5-3-----3-2-3-| 
A|-1---1-3---3-5-5-5-5-----5-5-------| 
E|-----------------------------------| 
PM               . . .     . . 

Riff II 
e|-----------------------------|-----------------------------| 
B|-----------------------------|-----------------------------| 
G|-----------------------------|-----------------------------| 
D|-3-----2h3---3---2-----2---3-|-2-----2h3---3---2-----2---3-| 
A|-1-1-1-----1---1---1-1---1---|-3-3-3-----3---3---3-3---3---| 
E|-----------------------------|-----------------------------| 
PM   . .     .   .   . .   .       . .     .   .   . .   . 

e|-----------------------------|-----------------------------| 
B|-----------------------------|-----------------------------| 
G|-----------------------------|-----------------------------| 
D|-3-----3h5---5---3-----3---5-|-2-----2h3---3---2-----2---3-| 
A|-5-5-5-----5---5---5-5---5---|-0-0-0-----0---0---0-0---0---| 
E|-----------------------------|-----------------------------| 
PM   . .     .   .   . .   .       . .     .   .   . .   . 

Verse 

Riff III 
e|---------------------------------| 
B|---------------------------------| 
G|---------------------------------| 
D|---2-3-2---2-3-2---3-5-3-2-3-2-0-| 
A|-1-------3-------5---------------| 
E|---------------------------------| 

Chorus 

Riff II 
e|-----------------------------|-----------------------------| 
B|-----------------------------|-----------------------------| 
G|-----------------------------|-----------------------------| 
D|-3-----2h3---3---2-----2---3-|-2-----2h3---3---2-----2---3-| 
A|-1-1-1-----1---1---1-1---1---|-3-3-3-----3---3---3-3---3---| 
E|-----------------------------|-----------------------------| 
PM   . .     .   .   . .   .       . .     .   .   . .   . 

e|-----------------------------|-----------------------------| 
B|-----------------------------|-----------------------------| 
G|-----------------------------|-----------------------------| 
D|-3-----3h5---5---3-----3---5-|-2-----2h3---3---2-----2---3-| 
A|-5-5-5-----5---5---5-5---5---|-0-0-0-----0---0---0-0---0---| 
E|-----------------------------|-----------------------------| 
PM   . .     .   .   . .   .       . .     .   .   . .   . 

Outro 

Riff II 
e|-----------------------------|-----------------------------| 
B|-----------------------------|-----------------------------| 
G|-----------------------------|-----------------------------| 
D|-3-----2h3---3---2-----2---3-|-2-----2h3---3---2-----2---3-| 
A|-1-1-1-----1---1---1-1---1---|-3-3-3-----3---3---3-3---3---| 
E|-----------------------------|-----------------------------| 
PM   . .     .   .   . .   .       . .     .   .   . .   . 

e|-----------------------------|-----------------------------| 
B|-----------------------------|-----------------------------| 
G|-----------------------------|-----------------------------| 
D|-3-----3h5---5---3-----3---5-|-2-----2h3---3---2-----2---3-| 
A|-5-5-5-----5---5---5-5---5---|-0-0-0-----0---0---0-0---0---| 
E|-----------------------------|-----------------------------| 
PM   . .     .   .   . .   .       . .     .   .   . .   . 



************************************ 

| PM  Palm mute 
| h   Hammer-on 

************************************ 
  

top 5 | we live no more
top rock'n roll
Outras músicas do artista letras do(a) We Live No More
Top cifras »Top artistas »
Petaxxon Comunicação Online
Cifras.com.br - Melhor e mais completo site de cifras e tablaturas do Brasil
Mais de 1 milhão de acordes de músicas cadastradas desde 2003
As informações contidas no nosso site são colaborações de seus usuários e podem conter erros, sendo assim, não nos responsabilizamos sobre nenhuma destas.
close
menos
mais
close
Cor dos acordes:

Cor da letra:

 

save
close
close
 
redimensionar