Cifras e Tablaturas
Weatherbox

Weatherbox

They're Ready For Us To Come Home

Cifras Cancelar Versão de Impressão Print

Weatherbox - They're Ready For Us To Come Home

Tom: C

  • 0:00 / 0:00
  			

 "All right..." 
e|----------------| 
B|----------------| 
G|-----2p0-----0--|  
D|---0-------0----| x4 
A|-3-------3------| 
E|----------------| 

  "Don't even try..." 
e|----------------|----------------|----------------|----------------|----------|---------| 
B|----------------|----------------|----------------|----------------|----------|---------| 
G|-----2p0-----0--|-----2p0-----0--|-----2p0-----0--|-----2p0-----0--|-----4----|-----0---| 
D|---0-------0----|---0-------0----|---0-------0----|---0-------0----|---0------|---0-----| x3 
A|-3-------3------|-3-------3------|-3-------3------|-3-------3------|-5--------|-5-------| 
E|----------------|----------------|----------------|----------------|----------|---------| 
   
  "No, that's not only smoke..." 
e|----------------|----------------|----------------|----------------|----------------|----------------| 
B|----------------|----------------|----------------|----------------|----------------|----------------| 
G|-----2p0-----0--|-----2p0-----0--|-----2p0-----0--|-----2p0-----0--|-----2p0-----0--|-----2p0-----0--| 
D|---0-------0----|---0-------0----|---0-------0----|---0-------0----|---0-------0----|---0-------0----| 
A|-3-------3------|-3-------3------|-3-------3------|-3-------3------|-3-------3------|-3-------3------| 
E|----------------|----------------|----------------|----------------|----------------|----------------| 

e|----------|---------| 
B|----------|---------| 
G|-----4----|-----0---| 
D|---0------|---0-----| 
A|-5--------|-5-------| 
E|----------|---------| 

  "And they will find me in the end..." 
e|----------------|----------------|----------------|----------------| 
B|----------------|----------------|----------------|----------------| 
G|-----2p0-----0--|-----2p0-----0--|-----2p0-----0--|-----2p0-----0--| 
D|---0-------0----|---0-------0----|---0-------0----|---0-------0----| 
A|-2-------2------|-2-------2------|----------------|----------------| 
E|----------------|----------------|-0-------0------|-0-------0------| 

  "Yes they will find me in the end..." 
e|----------------|----------------|----------------|----------------| 
B|----------------|----------------|----------------|----------------| 
G|-----4p0-----0--|-----4p0-----0--|-----4p0-----0--|-----4p0-----0--|   
D|---0-------0----|---0-------0----|---0-------0----|---0-------0----|  
A|-3-------3------|-3-------3------|-5-------5------|-5-------5------|  
E|----------------|----------------|----------------|----------------| 

  "And they will find me in the end..." 
e|----------------|----------------|----------------|----------------| 
B|----------------|----------------|----------------|----------------| 
G|-----2p0-----0--|-----2p0-----0--|-----2p0-----0--|-----2p0-----0--| 
D|---0-------0----|---0-------0----|---0-------0----|---0-------0----| 
A|-2-------2------|-2-------2------|----------------|----------------| 
E|----------------|----------------|-0-------0------|-0-------0------| 

  "Yes they will find me..." 
e|----------------|----------------| 
B|----------------|----------------| 
G|-----4p0-----0--|-----4p0-----0--| 
D|---0-------0----|---0-------0----| 
A|-3-------3------|-3-------3------| 
E|----------------|----------------| 
   
  "In the end..."          
e|----------|------------|----------------|-------------------| 
B|----------|------------|-----------0----|-------------------| 
G|-----0h2--|-----0h2----|-----0h2--------|-----0h2---4-5-7-7-| 
D|----------|---------0--|---------0---0--|---------0--0-0-0--| 
A|-2/3------|-2/3--------|-2/3------------|-2/3---------------| 
E|----------|------------|----------------|-------------------| 
                        
{During the last part a second guitar comes in  
and strums a some kinda C chord over the last two bars 
that I didn't feel like tabbing out.} 

  "I have not enough heart..." 
e|-----------------|-----------------|--------------|-------------------| 
B|-0-0-0-0-0-0-0-0-|-0-0-0-0-0-0-0-0-|--------------|-------------------| 
G|-0-0-0-0-0-0-0-0-|-0-0-0-0-0-0-0-0-|-------2--2-2-|-2--2-2-2--2-2-(0)-| 
D|-0-0-0-0-0-0-0-0-|-0-0-0-0-0-0-0-0-|-------x--x-x-|-x--x-x-x--x-x-(0)-| x3 
A|-2-2-2-2-2-2-2-2-|-3-3-3-3-3-3-3-3-|-2-3---3--3-3-|-3--3-3-3--3-3-(0)-| 
E|-----------------|-----------------|-----3--------|-------------------| 

  "Flap your wings..." 
e|-----------------|-----------------|--------------|------------| 
B|-0-0-0-0-0-0-0-0-|-0-0-0-0-0-0-0-0-|--------------|------------| 
G|-0-0-0-0-0-0-0-0-|-0-0-0-0-0-0-0-0-|-------2--2-2-|-2--2-2-(0)-| 
D|-0-0-0-0-0-0-0-0-|-0-0-0-0-0-0-0-0-|-------x--x-x-|-x--x-x-(0)-| 
A|-2-2-2-2-2-2-2-2-|-3-3-3-3-3-3-3-3-|-2-3---3--3-3-|-3--3-3-(0)-| 
E|-----------------|-----------------|-----3--------|------------| 

  "We're getting ready to come home..." 
e|-------------|-------------------|-------------|-------------------|-------------|-------------------|-------| 
B|-------------|-------------------|-------------|-------------------|-------------|-------------------|-------| 
G|-4--4--------|-2--2-2-2--2-2-(0)-|-4--4--------|-2--2-2-2--2-2-(0)-|-4--4--------|-2--2-2-2--2-2-(0)-|-4--4--| 
D|-x--x--------|-x--x-x-x--x-x-(0)-|-x--x--------|-x--x-x-x--x-x-(0)-|-x--x--------|-x--x-x-x--x-x-(0)-|-x--x--| 
A|-5--5--2-3---|-3--3-3-3--3-3-(0)-|-5--5--2-3---|-3--3-3-3--3-3-(0)-|-5--5--2-3---|-3--3-3-3--3-3-(0)-|-5--5--| 
E|-----------3-|-------------------|-----------3-|-------------------|-----------3-|-------------------|-------| 

  "Baaa daa da da..."  
e|-------------| 
B|-------------|   
G|-------------| 
D|-------------| x4 
A|-2---3-------| 
E|-------0--0--| 
{Make a lot of extra noise here...  
let certain strings ring, mute others etc.} 

 "My art is not-that-good art..." 
e|-----------------|-----------------|------------|---------| 
B|-0-0-0-0-0-0-0-0-|-0-0-0-0-0-0-0-0-|------------|-x-x-x-x-| 
G|-0-0-0-0-0-0-0-0-|-0-0-0-0-0-0-0-0-|-------2----|-x-x-x-x-| 
D|-0-0-0-0-0-0-0-0-|-0-0-0-0-0-0-0-0-|-------x----|-x-x-x-x-| 
A|-2-2-2-2-2-2-2-2-|-3-3-3-3-3-3-3-3-|-2-3---3----|-x-x-x-x-| 
E|-----------------|-----------------|-----3------|---------| 
{Tempo slows way down here................and picks back up.} 

 "MY ART IS NOT-THAT-GOOD ART..." 
e|-----------------|-----------------|---------| 
B|-5-5-5-5-5-5-5-5-|-7-7-7-7-7-7-7-7-|-8-7-3-5-| 
G|-0-0-0-0-0-0-0-0-|-0-0-0-0-0-0-0-0-|-0-0-0-0-| 
D|-x-x-x-x-x-x-x-x-|-x-x-x-x-x-x-x-x-|-x-x-x-x-| x4 
A|-3-3-3-3-3-3-3-3-|-5-5-5-5-5-5-5-5-|-7-5-2-3-| 
E|-----------------|-----------------|---------| 

e|-------------------------|---------| 
B|-5-5-5-5-5-5-5-5-5-5-5-5-|-8-7-3-5-| 
G|-0-0-0-0-0-0-0-0-0-0-0-0-|-0-0-0-0-| 
D|-x-x-x-x-x-x-x-x-x-x-x-x-|-x-x-x-x-| x4 
A|-3-3-3-3-3-3-3-3-3-3-3-3-|-7-5-2-3-| 
E|------------------=------|---------| 

{Now here is where things get tricky, these guitar parts play in call and response. 
You can play the following as one guitar part, but it's pretty challenging,  
and on the album it's definitely split between multiple guitars.} 

 Guitar 1 
e|---------|---------|\ 
B|-8-7-3-5-|---------| \ 
G|-0-0-0-0-|---------|  \ 
D|-x-x-x-x-|---------|   \ 
A|-7-5-2-3-|---------|    \ 
E|---------|---------|     \ 
                            \ 
Guitar 2:                    > x4 
                            / 
e|---------|---------|     / 
B|---------|---------|    / 
G|---------|-----0-2-|   / 
D|---------|---------|  / 
A|---------|-2-3-----| / 
E|---------|---------|/ 

Enter guitar 3 (Distorted guitar): 

e|---------|---------| 
B|---------|---------| 
G|-----4---|---------| 
D|---------|---------| 
A|---------|---------| 
E|-0-0---0-|---------| 

Guitar 2:                   
                             
e|---------|---------|      
B|---------|---------|     
G|---------|-----0-2-|    
D|---------|---------|   
A|---------|-2-3-----|  
E|---------|---------| 

Guitar 1: 

  "My art is not-that-good art..." 
e|-----------------|-----------------|--------------|-------------------| 
B|-0-0-0-0-0-0-0-0-|-0-0-0-0-0-0-0-0-|--------------|-------------------| 
G|-0-0-0-0-0-0-0-0-|-0-0-0-0-0-0-0-0-|-------2--2-2-|-2--2-2-2--2-2-(0)-| 
D|-0-0-0-0-0-0-0-0-|-0-0-0-0-0-0-0-0-|-------x--x-x-|-x--x-x-x--x-x-(0)-| x3 
A|-2-2-2-2-2-2-2-2-|-3-3-3-3-3-3-3-3-|-2-3---3--3-3-|-3--3-3-3--3-3-(0)-| 
E|-----------------|-----------------|-----3--------|-------------------| 

  "I bent myself to bring...." 
e|-----------------|-----------------|--------------|------------| 
B|-0-0-0-0-0-0-0-0-|-0-0-0-0-0-0-0-0-|--------------|------------| 
G|-0-0-0-0-0-0-0-0-|-0-0-0-0-0-0-0-0-|-------2--2-2-|-2--2-2-(0)-| 
D|-0-0-0-0-0-0-0-0-|-0-0-0-0-0-0-0-0-|-------x--x-x-|-x--x-x-(0)-| 
A|-2-2-2-2-2-2-2-2-|-3-3-3-3-3-3-3-3-|-2-3---3--3-3-|-3--3-3-(0)-| 
E|-----------------|-----------------|-----3--------|------------| 

  "I thought you might've wanted them..." 
e|-------------|-------------------|-------------|-------------------|-------------|-------------------|-------| 
B|-------------|-------------------|-------------|-------------------|-------------|-------------------|-------| 
G|-4--4--------|-2--2-2-2--2-2-(0)-|-4--4--------|-2--2-2-2--2-2-(0)-|-4--4--------|-2--2-2-2--2-2-(0)-|-4--4--| 
D|-x--x--------|-x--x-x-x--x-x-(0)-|-x--x--------|-x--x-x-x--x-x-(0)-|-x--x--------|-x--x-x-x--x-x-(0)-|-x--x--| 
A|-5--5--2-3---|-3--3-3-3--3-3-(0)-|-5--5--2-3---|-3--3-3-3--3-3-(0)-|-5--5--2-3---|-3--3-3-3--3-3-(0)-|-5--5--| 
E|-----------3-|-------------------|-----------3-|-------------------|-----------3-|-------------------|-------| 

Guitar 3 (Distorted): 

  "My art is not-that-good art" 
e|-----------------|-----------------| 
B|-----3(r)--------|------1(r)-------| 
G|-----------------|-----------------| 
D|-----------------|-----------------| x3 
A|-----------------|-----------------| 
E|-----------------|-----------------| 

  "I bent myself to bring..." 
e|-----------------|-----------------|-------5(r)-|---------| 
B|------3(r)-------|------1(r)-------|------------|---------| 
G|-----------------|-----------------|-4-5-0------|---------| 
D|-----------------|-----------------|------------|---------| 
A|-----------------|-----------------|------------|---------| 
E|-----------------|-----------------|------------|---------| 

  "I thought you might've wanted them..." 
e|-7--7-------|-5(r)----|-7--7-------|-5(r)----|-7--7-------|-5(r)----|-7--7-------| 
B|------------|---------|------------|---------|------------|---------|------------| 
G|------4-5-0-|---------|------4-5-0-|---------|------4-5-0-|---------|------------| 
D|------------|---------|------------|---------|------------|---------|------------| 
A|------------|---------|------------|---------|------------|---------|------------| 
E|------------|---------|------------|---------|------------|---------|------------| 
{...Another guitar enters at some point in here,  
just holding out a D note from what I can tell} 
                                                 


************************************ 

| /   slide up 
| \   slide down 
| h   hammer-on 
| p   pull-off 
| x   Mute note 
|(r)  let ring 

************************************ 
    	

enviado porenviado por: joaoewerton
cifra enviadaCorrigida por: sem correções
logo top cifrasComente
ico música do artistaMúsicas deste artista
ico curtiuCurtiu?
ico destaqueDestaque
Petaxxon Comunicação Online

Cifras.com.br - Melhor e mais completo site de cifras e tablaturas do Brasil Mais de 1 milhão de acordes de músicas cadastradas desde 2003
As informações contidas no nosso site são colaborações de seus usuários e podem conter erros, sendo assim, não nos responsabilizamos sobre nenhuma destas.

close
menos
mais
close
Cor dos acordes:

Cor da letra:

close
Alinhar acordes a direita Alinhar acordes a esquerda Alinhar acordes em baixo Alinhar acordes no topo
close
  Mostrar todos os acordes Esconder acordes muito fáceis Esconder acordes fáceis Esconder acordes intermediários
redimensionar
glossário