Cifras e Tablaturas
Wes Montgomery

Wes Montgomery

Fingerpickin

Cifras Cancelar Versão de Impressão
cifras

Wes Montgomery - Fingerpickin

fixar na tela  
Exibindo: vídeo-aula ver clipes redimensionar

Tom:

  
e|--------------------------------|--------------------------------|----6/7/10-6/7--------6/7/10-6/7| 
B|8--6-8--6-8--6-8--10-8-6----8-8-|----8---10--8---10--8-----------|---8----------------------------| 
G|-------------------------7--5-4-|7-9---9---9---10--10-10-7--10-10|7/9-----------9----77-----------| 
D|----------------------------5-5-|---------------------------9--9-|-------------(10)10-------------| 
A|--------------------------------|---------------------------11-11|--------------7-(7)-------------| 
E|--------------------------------|--------------------------------|-----------------8--------------| 

e|10-12-13---10-12-13---10-12-13--|-10-12-13-12-10-9--8--7---------|-----------9/10-9/10-10\8-------| 
B|--------------------------------|-------------------------11-10-9|--7-8--1011--------------86-----| 
G|--------------------------------|--------------------------------|---------------------------75---| 
D|--------------------------------|--------------------------------|-----------------------------89-| 
A|--------------------------------|--------------------------------|--------------------------------| 
E|--------------------------------|--------------------------------|--------------------------------| 

e|--------------------------------|--------------------------------|6/7-10--10-11-------------------| 
B|8-8-7/8--8888----8888-------8888|----8/10\8x8/10\8x8/10\8x8/10\8x|------------------8/10\8x8/10\8x| 
G|---------------------------7----|7-9-----------------------------|--------7--8---7-9--------------| 
D|-------7\----6-6------5-5-------|--------------------------------|--------9--9--------------------| 
A|--------------------------------|--------------------------------|--------------------------------| 
E|--------------------------------|--------------------------------|--------------------------------| 

e|--------------6/7-10--10-10-----|--------------------------------|--------------------------------| 
B|8/10\8x8/10\8x------------------|8/10\8x8/10\8x10/11-7---109-8---|--8--10/11---10/11--10/11-------| 
G|----------------------7--7---7-9|----------------------7-------7-|7----------12-----12-----12-9-12| 
D|----------------------9--8------|--------------------------------|--------------------------------| 
A|--------------------------------|--------------------------------|--------------------------------| 
E|--------------------------------|--------------------------------|--------------------------------| 

e|--------------------------------|--------------------------------|--------------------------------| 
B|10/11-------10/11--1311--10/11--|11/12-------10/11--------10/11--|--1311---13-1313-11-1111--------| 
G|-----12-9-12-----12----12-----12|-----12-9-12-----12-9-12--------|12----12-----------------12-1212| 
D|--------------------------------|--------------------------------|--------------------------------| 
A|--------------------------------|--------------------------------|--------------------------------| 
E|--------------------------------|--------------------------------|--------------------------------| 

                                                           (From here, single notes are actual single  
                                                            notes and octaves are indicated as such.) 

e|--------------------------------|--------------------------------|--------------------------------| 
B|--------------------------------|---8-8---------------8---8--8---|-----------------x-8--8---------| 
G|10-1010-7--7-7--5--5-5--3--3-3--|3--7-7-----------8/9-----7--7---|---------8/9-------8--7---------| 
D|---------------------------4-4--|4--8-7------7-10---------8--7---|----7-10-----7---x-7--7---4-5-7-| 
A|---------------------------1-1--|1-------7-8---------------------|7-8-----------------------------| 
E|--------------------------------|--------------------------------|--------------------------------| 

e|--------------------------------|------------------12---10-8/10\8|-7-5---10-9-7/8\7---------------| 
B|----------8-8--------3-5-3-7-5-3|---5-3-----------8--------------|------------------8-------------| 
G|--2/3-5---7-7----3/4------------|4------5-------9----------------|--------------------7-----------| 
D|5---------8-7--5----------------|---------8\7-10-----------------|--------------------------------| 
A|--------------------------------|--------------------------------|--------------------------------| 
E|--------------------------------|--------------------------------|--------------------------------| 

e|-----9-8--6-8--6--/9-8--6-8--6--|99-88-66-------66666666---------|------------14-14----/14-----14-| 
B|-----8-7--5-7--5--/8-7--5-7--5--|88-77-55-88-6--88888888--9--8---|------11-15--------11-----15----| 
G|6-9--9-8--6-8--6--/9-8--6-8--6--|99-88-66-66-4--77777777--8--7---|10/11---------------------------| 
D|-----8-7--5-7--5--/8-7--5-7--5--|88-77-55-88-6--66666666--6--5---|--------------------------------| 
A|4-7-----------------------------|---------77-5-------------------|--------------------------------| 
E|--------------------------------|--------------------------------|--------------------------------| 

e|12-10--7-8---7------------------|-----------------------------0-2|-3------------------------------| 
B|-----------9---10\9-------------|----------1-4-1-2-3--------3----|---3----------------------------| 
G|--------------------10-9-7-6-3--|1-2-----2-----------5--3-4------|--------------------------------| 
D|--------------------------------|----5\4-------------------------|--------------------------------| 
A|--------------------------------|--------------------------------|--------------------------------| 
E|--------------------------------|--------------------------------|--------------------------------| 

e|--------------------------------|--------------------------------|--------------------------------| 
B|8\------8\------8\------8\------|8---8-8-----8---8---------------|----------------------7---------| 
G|7\------7\------7\------7\------|9---8-8-----8---7---------------|------------------------9-7-----| 
D|9\------9\------9\------9\------|9---9-9-----9---8---5---5---5-5-|--5---5---5-5-5-5-5---------9-7-| 
A|8\------8\------8\------8\------|8---8-8---8-8---7---------------|--------------------------------| 
E|--------------------------------|--------------------------------|--------------------------------| 

e|--------------------------7-8---|-7-5----------------------------|--------------------------------| 
B|------------------------8-----9-|-------------5-3------3---------|8-8---9-9---8-9-8-9-8--8-8----9-| 
G|--------------------7-9---------|------4-5-6---------5---4-4-----|7-7---8-8---7-8-7-8-7--8-8----8-| 
D|--------10\9--7-9-10------------|------------------5-------------|9-9---1010--9-109-109--9-9--9-9-| 
A|10\9--8-----7-------------------|----------------------------5---|8-8---9-9---8-9-8-9-8--8-8----7-| 
E|----10--------------------------|--------------------------------|--------------------------------| 

e|10--10--15--10--9\8-8\6-6\3-----|--6/7-7\4----------7-6/7-107----|---5----------------------------| 
B|10--10--15--10--9\8-8\6-6\3-6-3-|--5/6-6\3-6----5---6-5/6-105----|---4---7-------------6----------| 
G|9---9---15--9---9\8-8\6-6\3-5-4-|--6/7-7\4-7----4---7-6/7-9-5-7-7|---5---5---5-4---4---4----------| 
D|8---8---14--8---8\7-7\5-5\2-4-3-|--5/6-6\3-6----5-----5/6-105----|---4---7---5-3---5---5---12\----| 
A|--------------------------------|--------------33-------------5-5|-------6---7-5---5---5----------| 
E|--------------------------------|--------------------------------|-----------5-3-----------10\----| 

e|12---10---8-8---12---10---8-7---|12---10---8-8---12---10---8-7---|5---2---------3-----7-----------| 
B|11---10---7-7---11---10---7-6---|11---10---7-7---11---10---7-6---|3---2---x-5---3-----6-----------| 
G|11---10---7-7---11---10---8-7---|11---10---7-7---11---10---8-7---|3---2---4-4---3-----7-----------| 
D|10---9----6-6---10---9----6-5---|10---9----6-6---10---9----6-5---|3---1---5-5---2---5-6-----------| 
A|--------------------------------|--------------------------------|--------------------------------| 
E|--------------------------------|--------------------------------|--------------------------------| 

e|-------9-9\8-8\6-6\3---6/7--10--|-------9-8--6-------------------|--------------------------------| 
B|--8-10-8-8\7-7\5-5\3---4/5--10--|--------------8--6--------------|------8---8---8-8---xx8-8-------| 
G|7------9-9\8-8\6-6\3---4/5--9---|77-7---6-5--3------7--5/6-5--3--|--------------7-6---xx----------| 
D|--5-7--8-8\7-7\5-5\2--------10--|--------------5--3-------------5|------7---9---------xx9-9-------| 
A|5-------------------------------|55-5---------------5--3/4-3--1--|------8---8---7-7---xx8-8-------| 
E|--------------------------------|-------------------------------3|--------------------------------| 

e|--------------------------------|--------------------------------|--------------------------------| 
B|------8---8---8-8---xx8-8-------|------8---8---8-8---xx8-8-------|------8---8---8-8---xx8-8-------| 
G|7-9---7---8---7-6---xx----------|7-9---9---6---5-6---xx----------|7-9---9---8---7-6---xx----------| 
D|--------------------xx9-9-------|--------------------xx7-7-------|--------------------xx7-7-------| 
A|5-7---8---8---7-7---xx8-8-------|5-7---8---8---7-7---xx8-8-------|5-7---8---8---7-7---xx8-8-------| 
E|--------------------------------|--------------------------------|--------------------------------| 

e|--------------------------------|7---5-7-8---10-10\9--10/11-12/13|14/15---13---10---8/9-8---6---3-| 
B|------8---8---8-8---xx8-8-------|6---5-6-8---11-11\10-11/12-12/13|14/15---11---10---7/8-7---5---3-| 
G|7-9---7---8---7-6---xx----------|7---5-7-9---11-11\10-11/12-12/13|14/15---11---9----8/9-8---6---4-| 
D|--------------------xx9-9-------|6---4-6-7---10-10\9--10/11-12/13|14/15---10---8----7/8-7---5---3-| 
A|5-7---8---8---7-7---xx8-8-------|--------------------------------|--------------------------------| 
E|--------------------------------|--------------------------------|--------------------------------| 

e|----------3333333333333333------| 
B|5/6-------2222222222222222------| 
G|4/5---222-2222222222222222------| 
D|4/5---333-3333333333333333------| 
A|3/4---xxx-xxxxxxxxxxxxxxxx------| 
E|------333-3333333333333333------| 



************************************ 

| x    Dead note 
| (n)  Ghost note 
| /    Slide up 
| \    Slide down 

************************************ 
  

top 5 | wes montgomery
top rock'n roll
Outras músicas do artista letras do(a) Wes Montgomery
Top cifras »Top artistas »
Petaxxon Comunicação Online
Cifras.com.br - Melhor e mais completo site de cifras e tablaturas do Brasil
Mais de 1 milhão de acordes de músicas cadastradas desde 2003
As informações contidas no nosso site são colaborações de seus usuários e podem conter erros, sendo assim, não nos responsabilizamos sobre nenhuma destas.
close
menos
mais
close
Cor dos acordes:

Cor da letra:

 

save
close
close
 
redimensionar