Cifras e Tablaturas
Wes Montgomery

Wes Montgomery

Wes Tune

Cifras Cancelar Versão de Impressão
cifras

Wes Montgomery - Wes Tune

fixar na tela  
Exibindo: vídeo-aula ver clipes redimensionar

Tom:

  
Intro 
e|--------------------------------|--------------------------------|--------------------------------| 
B|3/4-444-------------------------|--------------------------------|------------------4-------------| 
G|--------5--5-6--6-3---4-5-4-5-3-|2-3-5---3-----------------------|-------4-3----4-6---------------| 
D|--------------------------------|------6---3-6-5-----3-6----3-6--|--3-6------6--------------------| 
A|--------------------------------|------------------6------6------|6-------------------------------| 
E|--------------------------------|--------------------------------|--------------------------------| 

e|--------------------------------|--------------------------------|--------------------------------| 
B|3/4-444-------------------------|--------------------------------|------------------4-------------| 
G|--------5--5-6--6-3---4-5-4-5-3-|2-3-5---3-----------------------|-------4-3----4-6---------------| 
D|--------------------------------|------6---3-6-5-----3-6----3-6--|--3-6------6--------------------| 
A|--------------------------------|------------------6------6------|6-------------------------------| 
E|--------------------------------|--------------------------------|--------------------------------| 

e|--------------------------------|--------------------------------|--------------------------------| 
B|--------10--8---------8/9-------|----------9-------------8---6---|------6/7-----------------------| 
G|----7-10------9---10------9-6---|8-------9---11--------8-------7-|--8-------7-4---6---6-4---------| 
D|--8-------------10------------7-|----1011------------10----------|8-------------5---------7-5-----| 
A|10------------------------------|----------------1011------------|--------------------------------| 
E|--------------------------------|--------------------------------|--------------------------------| 

e|--------------------------------|--------------------------------|--------------------------------| 
B|3/4-444-------------------------|--------------------------------|------------------3/4-----------| 
G|--------5--5-6--6-3---4-5-4-5-3-|2-3-5---3-----------------------|-------4-3----4-6---------------| 
D|--------------------------------|------6---3-6-5-----3-6----3-6--|--3-6------6--------------------| 
A|--------------------------------|------------------6------6------|6-------------------------------| 
E|--------------------------------|--------------------------------|--------------------------------| 

Solo 
e|--------------------------------|---------2----------------------|--------------------------------| 
B|3/4-------------3/4-------------|-----3/4---3\2------------------|--------------------------------| 
G|----7\6\4-----------7\6\4-------|---4-----------6-4---6-4--------|----------------3-----------5---| 
D|---------6---------------6------|6------------------4------------|--9\8\4-------5---5-6-3---6-----| 
A|--------------------------------|--------------------------------|69------------------------------| 
E|--------------------------------|--------------------------------|--------------------------------| 

e|----4---------------------------|--------------------------------|--------------------------------| 
B|4-5---7-5\4---------------------|----6-8-------------------------|------------4-5---------------9-| 
G|------------6-3-4/5-3-----------|5-8-----8-5-------4/5--------4/5|--6-----5-6-----6-----------9---| 
D|----------------------6---------|------------5----------3--------|----8-------------7-5-6---10----| 
A|------------------------6-------|--------------8----------6------|--------------------------------| 
E|--------------------------------|--------------------------------|--------------------------------| 

e|8-119---------------------------|-------------10--8--------------|--------------------------------| 
B|------9-------9-----------------|--9----------------10-11\10\8---|-----------------------------8/9| 
G|--------9---8-----------------7-|8-----------------------------7-|----------------------4-6--9----| 
D|----------10----119-10-10/11----|--------------------------------|8-----7-5--------6-7------------| 
A|--------------------------------|--------------------------------|----5-------8-9-----------------| 
E|--------------------------------|--------------------------------|--------------------------------| 

e|---------------------------8----|10/11-10-----------------10-----|----9--------7------------------| 
B|-7-----------------4\3---9---11-|---------13/11-------------12---|------10-------8-7-----------7/8| 
G|---9\8-6-4--------5----10-------|---------------13-12-(12)----12-|(11)----11---------9-7-6-6------| 
D|---------------5/6--------------|--------------------------------|--------------------------------| 
A|--------------------------------|--------------------------------|--------------------------------| 
E|--------------------------------|--------------------------------|--------------------------------| 

e|-------------------8-5-6--------|-----------------3-------4---4--|-3/4---3/4---3/4---3/4---3/4----| 
B|-----6---------6-9-------8------|-------------------6-5\4--------|--------------------------------| 
G|-8-5-----5-6-8--------------8---|9--7-6----5-6-4-----------------|--------------------------------| 
D|------------------------------10|-------8------------------------|--------------------------------| 
A|--------------------------------|--------------------------------|--------------------------------| 
E|--------------------------------|--------------------------------|--------------------------------| 

                 ?1 
e|-------7-9--7-9b-------7-9-10/11|--9-7-9--7---7------------------|--------------------------------| 
B|--7-9----------------9----------|-----------9----9--9--7\4-3\2-0-|-------6\4----------------7-----| 
G|8------------------8------------|--------------------------------|-5-6-7-----6\5--------------9\8-| 
D|--------------------------------|--------------------------------|---------------8-6\----9--------| 
A|--------------------------------|--------------------------------|---------------------9----------| 
E|--------------------------------|--------------------------------|--------------------------------| 

e|--------------------------------|--------------------------------|--------------------------------| 
B|--------4-------8/9\8-6---------|------------6-8/9\8-6-----------|4-6-------3/4-------------------| 
G|6\4-4-5-----------------8-5-----|5/6-5-----8-----------8--5----6-|----6\5-3-------6\5-----------5-| 
D|------------------------------6-|------8--------------------6----|--------------6-----6-5-4\3-6---| 
A|--------------------------------|--------------------------------|--------------------------------| 
E|--------------------------------|--------------------------------|--------------------------------| 

e|-------------------------------8|-------------------------------7|-----------------------7--------| 
B|--5--4---------------------9/10-|-9/10---------------9/10---8/9--|-8/9---------------8/9---8/9----| 
G|--------6\5---------------------|------------5-------------------|-----------4--------------------| 
D|------------6\4--5-6------------|--------6/7---6/7---------------|-------5/6---5/6----------------| 
A|--------------------------------|--------------------------------|--------------------------------| 
E|--------------------------------|--------------------------------|--------------------------------| 
  
                                                                          ?1/2 
e|----------------(8)-------------|--------------------------------|---------6-8b---------8-12/13-11| 
B|------8\6----6-9-8-8-6----7\6\5-|----------------6-9-9--9--6-9---|6-9--6-9------9-----9-----------| 
G|---58-----8-7-------------------|7-6-4---------8-----------------|------------------8-------------| 
D|-68-----------------------------|------7-5-----------------------|--------------------------------| 
A|8-------------------------------|--------------------------------|--------------------------------| 
E|--------------------------------|--------------------------------|--------------------------------| 

                                                                    (Just as the saxophone comes in) 
e|---9-8-6\4----------------------|--------------------------------|--------------------------------| 
B|9----------7\6-5\4--------------|--9---7-------------------------|--------------------------------| 
G|-------------------6-4-3/4------|8-------8-6/7--6---6------------|5-------------------------------| 
D|---------------------------6----|-----------------9----9-6--4-6--|3-------------------------------| 
A|--------------------------------|--------------------------------|--------------------------------| 
E|--------------------------------|--------------------------------|--------------------------------| 

(During the saxophone solo, Wes seems to hit a few notes or chords, but his volume is too low to distinctly 
hear what he is playing.) 

Interlude Lick 1  
(2:56) 
e|--------------------------------|-------------8------------------|--------------------------------| 
B|--------------------------------|-----------9---11-9\8-6-7-------|--------------------------------| 
G|--------------------------------|---8-----10---------------8-----|--------------------------------| 
D|-----------6-8-10\8-------10-8-7|-10--1011-----------------------|--------------------------------| 
A|10-8-8---8----------1110--------|--------------------------------|--------------------------------| 
E|--------------------------------|--------------------------------|--------------------------------| 

Interlude Lick 2  
(3:13) 
e|--------------------------------|--------------------------------|--------------------------------| 
B|--------------------------------|--------------------------------|--------------------------------| 
G|3-5-3-5-3-----5--3-----5---2-4-2|-4-2----4--2--------------------|--------------------------------| 
D|----------4--------4------------|-----3-------3------------------|--------------------------------| 
A|--------------------------------|--------------------------------|--------------------------------| 
E|--------------------------------|--------------------------------|--------------------------------| 

Outro 
e|--------------------------------|--------------------------------|--------------------------------| 
B|3/4-444-------------------------|--------------------------------|------------------4-------------| 
G|--------5--5-6--6-3---4-5-4-5-3-|2-3-5---3-----------------------|-------4-3----4-6---------------| 
D|--------------------------------|------6---3-6-5-----3-6----3-6--|--3-6------6--------------------| 
A|--------------------------------|------------------6------6------|6-------------------------------| 
E|--------------------------------|--------------------------------|--------------------------------| 

e|--------------------------------|--------------------------------|--------------------------------| 
B|3/4-444-------------------------|--------------------------------|------------------4-------------| 
G|--------5--5-6--6-3---4-5-4-5-3-|2-3-5---3-----------------------|-------4-3----4-6---------------| 
D|--------------------------------|------6---3-6-5-----3-6----3-6--|--3-6------6--------------------| 
A|--------------------------------|------------------6------6------|6-------------------------------| 
E|--------------------------------|--------------------------------|--------------------------------| 

e|--------------------------------|--------------------------------|--------------------------------| 
B|--------10--8---------8/9-------|----------9-------------8---6---|------6/7-----------------------| 
G|----7-10------9---10------9-6---|8-------9---11--------8-------7-|--8-------7-4---6---6-4---------| 
D|--8-------------10------------7-|----1011------------10----------|8-------------5---------7-5-----| 
A|10------------------------------|----------------1011------------|--------------------------------| 
E|--------------------------------|--------------------------------|--------------------------------| 

e|--------------------------------| 
B|----4---------------------------| 
G|4-6-----6-4---------------------| 
D|------------7---5-3-------------| 
A|--------------------5-----------| 
E|--------------------------------| 



************************************ 

| /    Slide up 
| \    Slide down 
| (n)  Ghost note 
| b    Bend 

************************************ 
  

top 5 | wes montgomery
top rock'n roll
Outras músicas do artista letras do(a) Wes Montgomery
Top cifras »Top artistas »
Petaxxon Comunicação Online
Cifras.com.br - Melhor e mais completo site de cifras e tablaturas do Brasil
Mais de 1 milhão de acordes de músicas cadastradas desde 2003
As informações contidas no nosso site são colaborações de seus usuários e podem conter erros, sendo assim, não nos responsabilizamos sobre nenhuma destas.
close
menos
mais
close
Cor dos acordes:

Cor da letra:

 

save
close
close
 
redimensionar