Cifras e Tablaturas
Wolves In The Throne Room

Wolves In The Throne Room

Ahrimanic Trance

Cifras Cancelar Versão de Impressão Print

Wolves In The Throne Room - Ahrimanic Trance

Tom:

  • 0:00 / 0:00
  			

e---------------------------------------------------------| 
B---------------------------------------------------------| 
G---------------------------------------------------------| 
D-1"-------0"-------3"---1"-0"-1"---3"-0"----1"--3"-1"-0"-|x3 
A-3"-------2"-------3"---3"-3"-3"---3"-2"----2"--2"-2"-2"-| 
E---------------------------------------------------------| 

e----------------------------------------| 
B----------------------------------------| 
G----------------------------------------| 
D-1"----3"--1"-0"------------------------|x4 
A-3"----3"--3"-3"-3"---5"-6"--3"---------| 
E-----------------4"---4"-4"--1"---------| 

e---------------------------------------------------------| 
B---------------------------------------------------------| 
G---------------------------------------------------------| 
D-1"-------0"-------3"---1"-0"-1"---3"-0"----1"--3"-1"-0"-|x1 
A-3"-------2"-------3"---3"-3"-3"---3"-2"----2"--2"-2"-2"-| 
E---------------------------------------------------------| 

 Tempo slows down 
e----------------------------------------| 
B----------------------------------------| 
G----------------------------------------| 
D-1"----3"--1"-0"------------------------|x4 
A-3"----3"--3"-3"-3"---5"-6"--3"---------| 
E-----------------4"---4"-4"--1"---------| 

e----------------------| 
B----------------------| 
G----------------------| 
D----------------------|x4 
A-9"---10"--9"-7"-10"--| 
E-7"---8"---8"-8"-8"---| 

Back to up tempo                       Wills part                                Ends on 
e--------------------------------|    |-7--7--7--7--7--7--7--7--7--7--8--8--|   |-------|-7~--| 
B--------------------------------|    |-5--5--5--5--5--5--5--5--5--5--5--5--|   |-------|-5~--| 
G-4"-------------4"-------5"-----|    |-4--4--4--4--4--4--4--4--5--5--5--5--|   |-4~----|-4~--| 
D-2"-------------2"-------2"-----|x8  |-------------------------------5--5--|   |-2~----|-----| 
A-2"-------------3"-------3"-----|    |-------------------------------------|   |-2~----|-----| 
E-0"-------------0"-------0"-----|    |-------------------------------------|   |-0~----|-----| 

After synth Interlude 
e--------------------------------| 
B---------------------3"--5"--3"-| 
G-4"---4"--5"--------------------| 
D-2"---2"--2"---2"---------------|x2 
A-0"---3"--3"---2"---------------| 
E-0"---0"--0"---0"---------------| 

e---------------------------------------------| 
B---------------------------------------------| 
G---------------------------------------------| 
D-2"-------2"---------------------------------|x2 
A-0"-------3"--------2"----------2"-----------| 
E--------------------3"----------0"-----------| 
                                    Wills Part (comes in on the 4th repetition) 
e------------------------------|  |-----------------------------------------------------------| 
B-----------------3"---5"--3"--|  |-12"~------------------------------------------------------| 
G-4"---5"----------------------|  |--------------12"~----------11"~---------------------------| 
D-2"---2"----2"----------------|x4|----------------------------------------12"~---------------| 
A-2"---3"----2"----------------|  |-----------------------------------------------------------| 
E-0"---0"----0"----------------|  |-----------------------------------------------------------| 
                                              Ends on 
e--------------------|------------|          |--------| 
B--------------------|-3"--5"--3"-|          |--------| 
G-4"---4"--5"--------|------------|          |--------| 
D-2"---2"--2"---2"---|------------|x2        |-1~-----| 
A-0"---3"--3"---2"---|------------|          |-3~-----| 
E-0"---0"--0"---0"---|------------|          |--------| 


 Same as the first riff, but slower and quieter   9:05-end 
e---------------------------------------------------------| 
B---------------------------------------------------------| 
G---------------------------------------------------------| 
D-1"-------0"-------3"---1"-0"-1"---3"-0"----1"--3"-1"-0"-| 
A-3"-------2"-------3"---3"-3"-3"---3"-2"----2"--2"-2"-2"-| 
E---------------------------------------------------------| 

Arpeggiate these chords lightly, this is either wills lead or a synth part. 
e---------------------------------------------------------| 
B-8--------8--------8---8---8--8---8--8------8---8--8--8--| 
G-8--------7--------10--8---7--8---10-7------8---10-8--7--| 
D-10-------10-------10--10--10-10--10-9------9---9--9--9--| 
A---------------------------------------------------------| 
E---------------------------------------------------------| 
    	

enviado porenviado por: victborges
cifra enviadaCorrigida por: sem correções
logo top cifrasComente
ico música do artistaMúsicas deste artista
ico curtiuCurtiu?
ico destaqueDestaque
Petaxxon Comunicação Online

Cifras.com.br - Melhor e mais completo site de cifras e tablaturas do Brasil Mais de 1 milhão de acordes de músicas cadastradas desde 2003
As informações contidas no nosso site são colaborações de seus usuários e podem conter erros, sendo assim, não nos responsabilizamos sobre nenhuma destas.

close
menos
mais
close
Cor dos acordes:

Cor da letra:

close
Alinhar acordes a direita Alinhar acordes a esquerda Alinhar acordes em baixo Alinhar acordes no topo
close
  Mostrar todos os acordes Esconder acordes muito fáceis Esconder acordes fáceis Esconder acordes intermediários
redimensionar
glossário