Cifras e Tablaturas
Cifras Cancelar Versão de Impressão
cifras

Wolves In The Throne Room - Angrboda

fixar na tela  
Exibindo: vídeo-aula ver clipes redimensionar
  
Intro 
e|-----------------------------------------------| 
B|-----------------------------------------------| 
G|---------------------3"------------------------| 
D|-------5"---6"-5"-6"-------6"------------------| x 10 
A|-3"---------------------------4"---------5"-6"-| 
D|-----------------------------------5"-6"-------| 

                                 Heavy layering of keyboards and guitar effects 
e|-----------------------|       e|----------------------------------------| 
B|-----------------------|       B|----------------------------------------| 
G|-----------------------|       G|-9"--------10"--9"----------------------| 
D|-4\3--4\3---4-4---1----| x 4   D|-7"--------7"---7"----------------------| 
A|-4\3--4\3---4-4---1----|       A|-7"--------8"---7"-----7"--8"-----------| 
D|-4\3--4\3---4-4---1----|       D|-7"--------7"---7"------------10"-9"----| 

  Fast tempo tremolo riffing 
e|------------------------------------------------------------------------------| 
B|------------------------------------------------------------------------------| 
G|--------------------------10"--9"--7"--10"-9"---------------------------------| 
D|-7"-----9"---10"---9"-10"---------------------10"----7"--9"-10"----9"--10-9"--| x 8  
A|------------------------------------------------------------------------------| 
D|------------------------------------------------------------------------------| 

Instrumental 
e|-----------------------------------------------| 
B|-----------------------------------------------| 
G|---------------------3"------------------------| 
D|-------5"---6"-5"-6"-------6"------------------| x 6 
A|-3"---------------------------4"---------5"-6"-| 
D|-----------------------------------5"-6"-------| 

   This riff again, with a new lead riff during it               This section ends with this note w/delay 
e|----------------------------------------|--------------------------|        |------| 
B|----------------------------------------|--------------------------|        |-10\--| 
G|-9"--------10"--9"----------------------|-14--15--14--12--14-------|        |------| 
D|-7"--------7"---7"----------------------|---------------------15---| x 9    |------| 
A|-7"--------8"---7"-----7"--8"-----------|--------------------------|        |------| 
D|-7"--------7"---7"------------10"-9"----|--------------------------|        |------| 

 Slow Clean guitar interlude let it ring       Synth part plays after 4 times of clean riff 
e|-------------------------|                   |--------------------------------------------| 
B|-------13---14-----------|                   |-------8--9-----------------8-9----8--------| 
G|----12------------13-----|                   |----10---------10--------10----------10-----| x 4 
D|-10------------------11--| x 12              |-10---------10--------10--------------------| 
A|-------------------------|                   |--------------------------------------------| 
D|-------------------------|                   |--------------------------------------------| 

 Distorted heavy slow riffing 
e|----------------------------------| 
B|----------------------------------| 
G|----------------------------------| 
D|-4p3-3----4p3-3-4--4\3--3/4\1---3-| x4 
A|-4p3-3----4p3-3----4\3--3/4\1---3-| 
D|-4p3-3----4p3-3----4\3--3/4\1---3-| 

Distorted tremolo picked section  
e|-----------------| 
B|-----------------| 
G|-----------------| 
D|-7"---8"/13"\\\--| x8 
A|-5"---6"/11"\\\--| 
D|-0"---0"-0"------| 

Back to this riff but joined with vocals now 
e|----------------------------------| 
B|----------------------------------| 
G|----------------------------------| 
D|-4p3-3----4p3-3-4--4\3--3/4\1---3-| x2 
A|-4p3-3----4p3-3----4\3--3/4\1---3-| 
D|-4p3-3----4p3-3----4\3--3/4\1---3-| 

Back to this tremolo picked section  
e|-----------------| 
B|-----------------| 
G|-----------------| 
D|-7"---8"/13"\\\--| x8 
A|-5"---6"/11"\\\--| 
D|-0"---0"-0"------| 

 Again, the Heavy slow riffing part comes in  while this lead part plays 
e|-------------------------------------------| 
B|-------8----------9-----------8------------| 
G|----10---10----10---10----10-------10------| 
D|-10---------10---------10-------------8----| x8 
A|-------------------------------------------| 
D|-------------------------------------------| 

  

************************************ 

| h  Hammer-on 
| p  Pull-off 
| x  Dead note 
| /  Slide up 
| \  Slide down 
| "  Tremelo picking 

************************************ 
  

top 5 | wolves in the throne room
top rock'n roll
Outras músicas do artista letras do(a) Wolves In The Throne Room
Top cifras »Top artistas »
Petaxxon Comunicação Online
Cifras.com.br - Melhor e mais completo site de cifras e tablaturas do Brasil
Mais de 1 milhão de acordes de músicas cadastradas desde 2003
As informações contidas no nosso site são colaborações de seus usuários e podem conter erros, sendo assim, não nos responsabilizamos sobre nenhuma destas.
close
menos
mais
close
Cor dos acordes:

Cor da letra:

 

save
close
close
 
redimensionar