Cifras e Tablaturas
Woods Of Ypres

Woods Of Ypres

Retrosleep In The Morning Calm

Cifras Cancelar Versão de Impressão

Woods Of Ypres - Retrosleep In The Morning Calm

Tom: C#

  			
Riff 1: 
c#|------------------------------------------------------------| 
G#|------------------------------------------------------------| 
E |------------------------------------------------------------| 
B |---------9---x-8----------9-8-6\4-6/8-6\4--4-4--------------| 
F#|-----/6------x-6------/6-------------------4-4--------------| 
C#|--0----------x-4---0-----------------------2-2--------------| 

c#|------------------7--9--6-----------------------------------| 
G#|---------------7--------------------------------------------| 
E |------------8-----------------------------------------------| 
B |---------9-------------------------9-8-6\4-6/8-6\4--4-4-----| 
F#|-----/6------------------------/6-------------------4-4-----| 
C#|--0-------------------------0-----------------------2-2-----| 

Riff 2: 
c#|------------------------------------| 
G#|------------------------------------| 
E |------------------------------------| 
B |--2----2---4---6-6---8-8-6-6--------| 
F#|--2----2---4---6-6---6-6-6-6--------| 
C#|--0--0-0-0-2-2-4-4---4-4-4-4-4-4----| 3X 
PM      .   .   .               . . 

c#|-----------------------------------| 
G#|-----------------------------------| 
E |-----------------------------------| 
B |--2----2---4---6-6---6/9-9-9-9-----| 
F#|--2----2---4---6-6---6/9-9-9-9-----| 
C#|--0--0-0-0-2-2-4-4---4/7-7-7-7-----| 
PM      .   .   .  

Outro (Riff 1 w/ different ending): 
c#|------------------------------------------------------------| 
G#|------------------------------------------------------------| 
E |------------------------------------------------------------| 
B |---------9---x-8----------9-8-6\4-6/8-6\4--4-4--------------| 
F#|-----/6------x-6------/6-------------------4-4--------------| 
C#|--0----------x-4---0-----------------------2-2--------------| 
                                  
c#|------------------7--9--6----(7)-------| 
G#|---------------7-------------(9)-------| 
E |------------8--------------------------| 
B |---------9--------------------8--------| 
F#|-----/6-----------------------6--------| 
C#|--0---------------------------4--------| 

************************************ 

| x   Dead note 
| /   Slide up 
| \   Slide down 
| PM  Palm mute 

************************************ 
    	
fixar
fixar inscrever-se

enviado porenviado por: adalgomes
cifra enviadaCorrigida por: sem correções
logo top cifrasComente
ico música do artistaMúsicas deste artista
ico curtiuCurtiu?
ico destaqueDestaque
Petaxxon Comunicação Online

Cifras.com.br - Melhor e mais completo site de cifras e tablaturas do Brasil Mais de 1 milhão de acordes de músicas cadastradas desde 2003
As informações contidas no nosso site são colaborações de seus usuários e podem conter erros, sendo assim, não nos responsabilizamos sobre nenhuma destas.

close
menos
mais
close
Cor dos acordes:

Cor da letra:

close
Alinhar acordes a direita Alinhar acordes a esquerda Alinhar acordes em baixo Alinhar acordes no topo
close
  Mostrar todos os acordes Esconder acordes muito fáceis Esconder acordes fáceis Esconder acordes intermediários
redimensionar
glossário