Cifras e Tablaturas
Yan Breno

Yan Breno

Ardor

Cifras Cancelar Versão de Impressão Print

Yan Breno - Ardor

Tom: E

  			E5  C7M  
         E5  C7M 

E|------------------------------------------------| 
B|------------------------------------------------| 
G|-------8------8------8-------8-9----------------| 
D|---7h9---7h9---7h9---7h9-----9------------------| 
A|------------------------------------------------| 
E|------------------------------------------------| 

E|------------------------------------------------| 
B|------------------------------------------------| 
G|-------8------8------8-------8-9---11-----------| 
D|---7h9---7h9---7h9---7h9------------------------| 
A|------------------------------------------------| 
E|------------------------------------------------| 

E5                    C7M 
Saber que o que é certo virá 
E5             C7M 
Sem se queixar 
E5                       C7M 
Sorte, são só poucos que tem 
E5                    C7M 
Vivem na beira do mar 

A9                    E 
E é lá que eu vou morar 
A9                E 
Sentir e ver como é 

Solo  E5  C7M  E5  C7M  

E5                   C7M 
Ódio, muitos dele já tem 
E5             C7M 
Sem se queixar 
E5                   C7M 
Vida, que não segue mais 
E5                   C7M 
Mente pra tentar mascarar 

A9                    E 
A flor sufocada de dor 
A9                    E 
E o ar que sufoca o amor 

B                     A9 
E lá se vai mais um 
Cm7         B         A9 
Que tenta não lembrar 
B                     A9 
Que vida não é só 
E          A9 
Ardor 
    	
fixar
fixar inscrever-se

enviado porenviado por: tarikike
cifra enviadaCorrigida por: sem correções
logo top cifrasComente
ico música do artistaMúsicas deste artista
ico curtiuCurtiu?
ico destaqueDestaque
Petaxxon Comunicação Online

Cifras.com.br - Melhor e mais completo site de cifras e tablaturas do Brasil Mais de 1 milhão de acordes de músicas cadastradas desde 2003
As informações contidas no nosso site são colaborações de seus usuários e podem conter erros, sendo assim, não nos responsabilizamos sobre nenhuma destas.

close
menos
mais
close
Cor dos acordes:

Cor da letra:

close
Alinhar acordes a direita Alinhar acordes a esquerda Alinhar acordes em baixo Alinhar acordes no topo
close
  Mostrar todos os acordes Esconder acordes muito fáceis Esconder acordes fáceis Esconder acordes intermediários
redimensionar
glossário