Cifras e Tablaturas
Yasar Kurt

Yasar Kurt

Al??amad?m

Cifras Cancelar Versão de Impressão Print

Yasar Kurt - Al??amad?m

Tom: Am

  			
Intro 

e|----0-----|----0-----|----0------|----0-----| 
B|-3-3-3-3--|-3-3-3-3--|---3-3-3---|---3-3-3--| 
G|--0---0-0-|--0---0---|--0---0--0-|--0---0---| 
D|----------|----------|-----------|----------| 
A|-3--------|-3------3-|-1---------|-1------1-| 
E|----------|----------|-----------|----------| 

e|----0-----|----0---0---0-| 
B|---3-3-3--|---2-2-2-2-2--| 
G|--0---0-0-|--2---2---2---| 
D|----------|--------------| 
A|-0--------|-0------------| 
E|----------|--------------| 

    Am 
e|---------0-|---------|) 
B|----0^1-3--|-----0^1-|) 
G|---2-------|---2-----|) x2 
D|--2--------|--2------|) 
A|-0---------|-0-------|) 
E|-----------|---------|) 


Verse 

    Am         Dm         Am 
e|-----0----|----1-----|---------0-|---------------| 
B|------1---|-----3-3--|----0^1-3--|-----0^1-------| 
G|----2—-2--|---2—-2-2-|---2-------|---2-----------| 
D|---2----2-|-0--------|--2--------|--2------------| 
A|-0--------|----------|-0---------|-0-------------| 
E|----------|----------|-----------|---------------| 
 Uzun uzun anlatamam herseyi 

    Dm                          Am 
e|----------1-----|----1-----|---------0-|---------| 
B|-----------3-3--|-----3-3--|----0^1-3--|-----0^1-| 
G|---------2--2-2-|---2--2-2-|---2-------|---2-----| 
D|-------0--------|-0--------|--2--------|--2------| 
A|----------------|----------|-0---------|-0-------| 
E|----------------|----------|-----------|---------| 
 Böyle olsun   istemedim bende 

    Dm                      Am 
e|----1^0---|-----1------|---------0-|-------------| 
B|---3---3--|---3---3----|----0^1-3--|-----0^1-----| 
G|--2-----2-|--2-2-2-2---|---2-------|---2---------| 
D|-0--------|-0----------|--2--------|--2----------| 
A|----------|------------|-0---------|-0-----------| 
E|----------|------------|-----------|-------------| 
 Sakin         kal deme bana 

    C               G           Am 
e|---------0-----|----3------|---------0-|---------| 
B|----------1-1--|-----0-0---|----0^1-3--|-----0^1-| 
G|-----------0-0-|------0-0--|---2-------|---2-----| 
D|-------2-------|---0-------|--2--------|--2------| 
A|-----3---------|-----------|-0---------|-0-------| 
E|---------------|-3---------|-----------|---------| 
 Gidiyorum     alisamadim bu kente 


Instrumental 

    Dm 
e|----1^0----|----3^0----|----1^0----|----3^0----| 
B|---3---3---|---3---3---|---3---3---|---3---3---| 
G|--2-----2--|--2-----2--|--2-----2--|--2-----2--| 
D|-0---------|-0---------|-0---------|-0---------| 
A|-----------|-----------|-----------|-----------| 
E|-----------|-----------|-----------|-----------| 

  Am 
e|-----------|-----------|-----------|-----------| 
B|----1^0-0--|----3^0-0--|----1^0-0--|----3^0-0--| 
G|---2-------|---2-------|---2-------|---2-------| 
D|--2--------|--2--------|--2--------|--2--------| 
A|-0---------|-0---------|-0---------|-0---------| 
E|-----------|-----------|-----------|-----------| 

  Dm 
e|----1^0----|----3^0----|----1^0----|----3^0-0--| 
B|---3---3---|---3---3---|---3---3---|---3-------| 
G|--2-----2--|--2-----2--|--2-----2--|--2--------| 
D|-0---------|-0---------|-0---------|-0---------| 
A|-----------|-----------|-----------|-----------| 
E|-----------|-----------|-----------|-----------| 

  Am 
e|-----------|-----------|------------|-----------| 
B|----1^0-0--|----3^0-0--|-0^1-1^0-0--|----3^0-0--| 
G|---2-------|---2-------|----2-------|---2-------| 
D|--2--------|--2--------|------------|--2--------| 
A|-0---------|-0---------|-0----------|-0---------| 
E|-----------|-----------|------------|-----------| 


verse 2 

    Am         Dm         Am 
e|----------|----1-----|---------0-|---------------| 
B|----0^1-1-|-----3-3--|----0^1-3--|-----0^1-------| 
G|---2—-----|---2—-2-2-|---2-------|---2-----------| 
D|--2-------|-0--------|--2--------|--2------------| 
A|-0--------|----------|-0---------|-0-------------| 
E|----------|----------|-----------|---------------| 
 Suskun   deniz boyu martilar 

    Dm                    Am 
e|----1-----|----1-----|---------0-|---------| 
B|-----3-3--|-----3-3--|----0^1-3--|-----0^1-| 
G|---2--2-2-|---2--2-2-|---2-------|---2-----| 
D|-0--------|-0--------|--2--------|--2------| 
A|----------|----------|-0---------|-0-------| 
E|----------|----------|-----------|---------| 
 Eve yalniz dönüyorum bende 

    Dm                      Am 
e|----1^0---|-----1------|---------0-|-------------| 
B|---3---3--|---3---3----|----0^1-3--|-----0^1-----| 
G|--2-----2-|--2-2-2-2---|---2-------|---2---------| 
D|-0--------|-0----------|--2--------|--2----------| 
A|----------|------------|-0---------|-0-----------| 
E|----------|------------|-----------|-------------| 
 Sakin         kal deme bana 

    C               G           Am 
e|---------0-----|----3------|---------0-|---------| 
B|----------1-1--|-----0-0---|----0^1-3--|-----0^1-| 
G|-----------0-0-|------0-0--|---2-------|---2-----| 
D|-------2-------|---0-------|--2--------|--2------| 
A|-----3---------|-----------|-0---------|-0-------| 
E|---------------|-3---------|-----------|---------| 
 Gidiyorum     alisamadim bu kente 


Instrumental 

    Dm 
e|----1^0----|----3^0----|----1^0----|----3^0----| 
B|---3---3---|---3---3---|---3---3---|---3---3---| 
G|--2-----2--|--2-----2--|--2-----2--|--2-----2--| 
D|-0---------|-0---------|-0---------|-0---------| 
A|-----------|-----------|-----------|-----------| 
E|-----------|-----------|-----------|-----------| 

  Am 
e|-----------|-----------|-----------|-----------| 
B|----1^0-0--|----3^0-0--|----1^0-0--|----3^0-0--| 
G|---2-------|---2-------|---2-------|---2-------| 
D|--2--------|--2--------|--2--------|--2--------| 
A|-0---------|-0---------|-0---------|-0---------| 
E|-----------|-----------|-----------|-----------| 

  Dm 
e|----1^0----|----3^0----|----1^0----|----3^0-0--| 
B|---3---3---|---3---3---|---3---3---|---3-------| 
G|--2-----2--|--2-----2--|--2-----2--|--2--------| 
D|-0---------|-0---------|-0---------|-0---------| 
A|-----------|-----------|-----------|-----------| 
E|-----------|-----------|-----------|-----------| 

  Am 
e|-----------|-----------|------------|-----------| 
B|----1^0-0--|----3^0-0--|-0^1-1^0-0--|----3^0-0--| 
G|---2-------|---2-------|----2-------|---2-------| 
D|--2--------|--2--------|------------|--2--------| 
A|-0---------|-0---------|-0----------|-0---------| 
E|-----------|-----------|------------|-----------| 



************************************ 

| ^ Pull Off 

************************************ 
    	
fixar
fixar inscrever-se

enviado porenviado por: lucicamargo
cifra enviadaCorrigida por: sem correções
logo top cifrasComente
ico música do artistaMúsicas deste artista
ico curtiuCurtiu?
ico destaqueDestaque
Petaxxon Comunicação Online

Cifras.com.br - Melhor e mais completo site de cifras e tablaturas do Brasil Mais de 1 milhão de acordes de músicas cadastradas desde 2003
As informações contidas no nosso site são colaborações de seus usuários e podem conter erros, sendo assim, não nos responsabilizamos sobre nenhuma destas.

close
menos
mais
close
Cor dos acordes:

Cor da letra:

close
Alinhar acordes a direita Alinhar acordes a esquerda Alinhar acordes em baixo Alinhar acordes no topo
close
  Mostrar todos os acordes Esconder acordes muito fáceis Esconder acordes fáceis Esconder acordes intermediários
redimensionar
glossário