Cifras e Tablaturas
Yasuharu Takanashi

Yasuharu Takanashi

Naruto - Despair

Cifras Cancelar Versão de Impressão

Yasuharu Takanashi - Naruto - Despair

Tom:

  			e|-----0-------------------------0--------1--0--------| 
B|-----1--3--1--0--1--1---(1)----0-----3--------1--1--| 
G|--------2--2--0--2--2---(2)----------2--2-----2--2--| 
D|----------------------------------------------------| 
A|--0-----------0----------------0-----------0--------| 
E|----------------------------------------------------| 

e|-----0------------0------------------------------------------------------------| 
B|--------3------------0---------------------------------------------------------| 
G|-------------------------------------------------------------------------------| 
D|-------------------------------------------------------------------------------| 
A|--0-------------0--------------------------------------------------------------| 
E|-------------------------------------------------------------------------------| 

e|-----------0-------------------------------------------------0--| 
B|-----0--1-----0---------0------3------1---------------0---1-----| 
G|----------------------------------------------------------------| 
D|-----2-----2-----2---2-----0------0-------2-----2-----2------2--| 
A|--0-----3----------2-----------0------0------3-----0------3-----| 
E|--------------3---------1---------------------------------------| 

e|----------3------5-------------0---------------------------------------------------| 
B|---0-----------------1--1--3-------------------------------------------------------| 
G|-----------------------------------------------------------------------------------| 
D|-------2-----2-------0-----0-------2---2-------------------------------------------| 
A|---3------2------1------0------0-----3---------------------------------------------| 
E|-----------------------------------------------------------------------------------| 

e|-----------------------------------------------------------0---------------------------| 
B|--------0-1-0--------------------------0-1-0-------------------3-----------------------| 
G|-----------------2-0-------------------0--------2-0-2----------------------------------| 
D|-------3------------2--2------------0----------0---------------------------------------| 
A|-----3------0----3---0----3--2-------------2--------0---3--2---0-----------------------| 
E|--1---------------------------------3--------------------------------------------------| 

e|--0------------5----3-------0----------------0-----------------------------------------| 
B|------0-1-0--------------------------------3---3-----1-0-----1----0--------------------| 
G|------------------0------------------------0-------------2------------2----------------| 
D|------3-----------------2---------------0------------0-----2--------2------------------| 
A|----3-----0----3----0-------3---2--------------2---------0-----------------------------| 
E|--1-----------------------------------3------------------------------------------------| 

e|-----0-----------0--------------------------------------------------------------| 
B|--------3-----------0-----------------------------------------------------------| 
G|---------------------------2----------------------------------------------------| 
D|---------------------------2----------------------------------------------------| 
A|--0-----------0------------0----------------------------------------------------| 
E|--------------------------------------------------------------------------------| 



************************************ 

| (n)  Ghost note 

************************************ 
    	
fixar
fixar inscrever-se

enviado porenviado por: ang-letra
cifra enviadaCorrigida por: sem correções
logo top cifrasComente
ico música do artistaMúsicas deste artista
ico curtiuCurtiu?
ico destaqueDestaque
Petaxxon Comunicação Online

Cifras.com.br - Melhor e mais completo site de cifras e tablaturas do Brasil Mais de 1 milhão de acordes de músicas cadastradas desde 2003
As informações contidas no nosso site são colaborações de seus usuários e podem conter erros, sendo assim, não nos responsabilizamos sobre nenhuma destas.

close
menos
mais
close
Cor dos acordes:

Cor da letra:

close
Alinhar acordes a direita Alinhar acordes a esquerda Alinhar acordes em baixo Alinhar acordes no topo
close
  Mostrar todos os acordes Esconder acordes muito fáceis Esconder acordes fáceis Esconder acordes intermediários
redimensionar
glossário