Cifras e Tablaturas
Yosuga no Sora

Yosuga no Sora

Toui Sora He

Cifras Cancelar Versão de Impressão Print

Yosuga no Sora - Toui Sora He

Tom:

  			

 
E|-2-h7--------5-----------2h7-----5----------9-10-9---------------------------------------------------------| 
B|-5-----------3-5---------5-----3-------------------10---7-10-----------------------------------------------| 
G|-4-----------4-----------4------------------9---------9----------------------------------------------------| 
D|--------------------------------------------9--------------------------------------------------------------| 
A|-----------------------------------------------------------------------------------------------------------| 
E|-3-----------2-----------3------------------7--------------------------------------------------------------| 
 

 
E|----------2------------------0-5-7-5---------2-5-----------------2-----------------------------------------| 
B|-0---0------2--3-2---0---2-3-------------0-----5-------0-----------2---------------------------------------| 
G|---2-0------2------2-0---------6---------0-----7-6-----0---1--3--------------------------------------------| 
D|-----0------0--------0---------0---------0---------7---0-0----2--------------------------------------------| 
A|-----------------------------------------------5-----------------------------------------------------------| 
E|-----3------2--------0-------------------3-------------0------2--------------------------------------------| 
 

 
E|---------2---------------------------0-5-7-5------------2--5----------------------------------7------------| 
B|-0----------2------3-2----0------2-3------------0----------------2----0-----------0-------4-7--------------| 
G|-0-----0----2----------2--0------------6---6----0-----0------------2----------6---------4------------------| 
D|-0---0------0---0---------0---0------------0----0---0----------2----------4-7---------4--------------------| 
A|---2----------0-------------2----------0----------2----------2----------6-----------6----------------------| 
E|-3----------2-------------0---------------------3----------2----------7-----------7------------------------| 
 

 
E|-7-------14--17----------------------------14-9-------10-9----7--------9-10-12--17-19-17-------------------| 
B|-----0------------14-------12------12---------------7------10-----0-7--------------------------------------| 
G|---7---7---------------14-----9-11----------------7-------------7---------------------14-------------------| 
D|-5-----------14------------9--------------------7-------------5--------------------------------------------| 
A|----------------------------------------------9---------------------------------14-------------------------| 
E|-----------------------------------------------------------------------------------------------------------| 
 

 
E|-7-------14--17--------------------------------------------2--7--------------------------------------------| 
B|-----0------------14-------12------12----------------0--3--3--7--------------------------------------------| 
G|---7---7---------------14-----9-11-------------------0--0--0--7--------------------------------------------| 
D|-5-----------14------------9----------------------------0--------------------------------------------------| 
A|-----------------------------------------------------0-----------------------------------------------------| 
E|-----------------------------------------------------------------------------------------------------------| 
 

 
E|-2--5-7-------5-7-5-------------5---9---10-12-14-14----------12-10-9--------7-9-10-------------------------| 
B|------------7-------------5-7---------7-10-------------------------------7-------------10------------------| 
G|----------7-------------6---------7-----------------------14-----------7-------------9---------------------| 
D|--------9-------------7-----4-7---------0-0--0---------12------------7-------------9-----------------------| 
A|-----10-------------7-------------------------------12-------------9------------10-------------------------| 
E|------------------5------------------------------12--------------------------------------------------------| 
 

 
E|-10-9-7-6---7---9------14----------12-10-9------------7---------7----14---12-10--9---------7---------------| 
B|------------7---7----------------------------10---7---7-------7------12----------7-10------7---------------| 
G|--------------7-----------------11------------7---7---7-----7--------12----------7----11---7---------------| 
D|----------8------------------12------------7----7---------9----------------------7-------------------------| 
A|--------9-----------------12-------------9--------------9--------------------------------------------------| 
E|-----------------------12-----------------------------7----------------------------------------------------| 
    	
fixar
fixar inscrever-se

enviado porenviado por: andrsouza
cifra enviadaCorrigida por: sem correções
logo top cifrasComente
ico música do artistaMúsicas deste artista
ico curtiuCurtiu?
ico destaqueDestaque
Petaxxon Comunicação Online

Cifras.com.br - Melhor e mais completo site de cifras e tablaturas do Brasil Mais de 1 milhão de acordes de músicas cadastradas desde 2003
As informações contidas no nosso site são colaborações de seus usuários e podem conter erros, sendo assim, não nos responsabilizamos sobre nenhuma destas.

close
menos
mais
close
Cor dos acordes:

Cor da letra:

close
Alinhar acordes a direita Alinhar acordes a esquerda Alinhar acordes em baixo Alinhar acordes no topo
close
  Mostrar todos os acordes Esconder acordes muito fáceis Esconder acordes fáceis Esconder acordes intermediários
redimensionar
glossário