Cifras e Tablaturas
You Me At Six

You Me At Six

Wild Ones

Cifras Cancelar Versão de Impressão
cifras

You Me At Six - Wild Ones

fixar na tela  
Exibindo: vídeo-aula ver clipes redimensionar
  
Intro 
(Guitar 1 - Acoustic) 
e|----------| 
B|----------| 
G|-----2----| 
D|-0-0---0--|(x4) 
A|----------| 
E|----------| 

(Drums and Guitar 2 come in.) 
e|----------------------------------| 
B|----------------------------------| 
G|-----2--------2-------------------| 
D|-0-0---0--------------0---------0-|(x6) 
A|----------4-4---4-----------------| 
E|------------------3-3---3---3-3--3| 

Note: On last time repeat the 3303 
Note: PLay on every verse. Don't play on 'Are we gonna live forever' or the Chorus. 

(Guitar 2)  
(Electric) 
e|--------------------------------------------------------------------------------| 
B|-8-8-8-8-8-8-8-8-7-7-7-7-7-7-7-7-10-10-10-10-10-10-10-10-10-10-10-10-10-10-10-10| 
G|--------------------------------------------------------------------------------| 
D|--------------------------------------------------------------------------------| 
A|--------------------------------------------------------------------------------| 
E|--------------------------------------------------------------------------------| 
Note: Always play with and underneath guitar one. 

e|--------------| 
B|-------8---8--| 
G|-7-7-7---7----|(x8) 
D|--------------| 
A|--------------| 
E|--------------| 
Note: Played at the very end, at the 'Are we gonna live forever'. 

(Guitar 3)  
(Electric) 
e|-----------------------------------------------------------------| 
B|---------10-8-10-8---------10-8-10-8------------6-8-6---6-8-6-8--| 
G|-----7-7---------------7-7--------------------7------------------| 
D|-7-9---------------7-9----------------------5--------------------| 
A|----------------------------------------5-7----------------------| 
E|-----------------------------------------------------------------| 
Note: Played through every 'Are we gonna live forever'. 

e|----------------------------------------------------------------------------| 
B|-8-8-8-7-7-7-7-7-7-7-7-7-7-7-7-7-7-8-8-8-7-7-7-10-10-10-10-10-10-10-10-10-10| 
G|----------------------------------------------------------------------------|(x3) 
D|----------------------------------------------------------------------------| 
A|----------------------------------------------------------------------------| 
E|----------------------------------------------------------------------------| 

e|--------------------------------------------------------------------| 
B|-8-8-8-7-7-7-7-7-7-7-7-7-7-7-7-7-7-8-8-8-7-7-7-5-5-5-5-5-5-5-5-5-5-3| 
G|--------------------------------------------------------------------| 
D|--------------------------------------------------------------------| 
A|--------------------------------------------------------------------| 
E|--------------------------------------------------------------------| 
Note: All played through every Chorus. 

(Guitar 4)  
(Electric)  
(distortion) 
e|----------------------------------------------------------------------------| 
B|-8-8-8-7-7-7-7-7-7-7-7-7-7-7-7-7-7-8-8-8-7-7-7-10-10-10-10-10-10-10-10-10-10| 
G|----------------------------------------------------------------------------| 
D|----------------------------------------------------------------------------| 
A|----------------------------------------------------------------------------| 
E|----------------------------------------------------------------------------| 

Outro 
e|--------------------------------------------------------------------| 
B|-8-8-8-7-7-7-7-7-7-7-7-7-7-7-7-7-7-8-8-8-7-7-7-5-5-5-5-5-5-5-5-5-5--| 
G|--------------------------------------------------------------------| 
D|--------------------------------------------------------------------| 
A|--------------------------------------------------------------------| 
E|--------------------------------------------------------------------| 
  

top 5 | you me at six
top rock alternativo
Outras músicas do artista letras do(a) You Me At Six
Top cifras »Top artistas »
Petaxxon Comunicação Online
Cifras.com.br - Melhor e mais completo site de cifras e tablaturas do Brasil
Mais de 1 milhão de acordes de músicas cadastradas desde 2003
As informações contidas no nosso site são colaborações de seus usuários e podem conter erros, sendo assim, não nos responsabilizamos sobre nenhuma destas.
close
menos
mais
close
Cor dos acordes:

Cor da letra:

 

save
close
close
 
redimensionar