Cifras e Tablaturas
Young M.A

Young M.A

Ooouuu

Cifras Cancelar Versão de Impressão
cifras

Young M.A - Ooouuu

fixar na tela  
Exibindo: vídeo-aula ver clipes redimensionar

Tom:

  Intro 

|------------------------------------| 
|-3----4p3----4p3----4p3----4p3------| 
|-5--3------3------3------3-----3--3-| 
|-5--------------------------------5-| 
|-3--------------------------------5-| 
|----------------------------------3-| 

|-------------------------------------| 
|-3----4p3----4p3----4p3----4p3-----3-| 
|-5--3------3------3------3------3--5-| 
|-5------------------------------5--5-| 
|-3------------------------------5--3-| 
|--------------------------------3----| 


Verse / Chorus - {Guitar 1} 

|------------------------------------------------| 
|-----3---4p3---4p3----------3---4p3---4p3-------| 
|-0-5---5-----5------5---0-5---5-----5------5--0-| 
|------------------------------------------------| 
|------------------------------------------------| 
|------------------------------------------------| 
  

top 5 | young m.a
top rap/hip hop
Outras músicas do artista letras do(a) Young M.A
Top cifras »Top artistas »
Petaxxon Comunicação Online
Cifras.com.br - Melhor e mais completo site de cifras e tablaturas do Brasil
Mais de 1 milhão de acordes de músicas cadastradas desde 2003
As informações contidas no nosso site são colaborações de seus usuários e podem conter erros, sendo assim, não nos responsabilizamos sobre nenhuma destas.
close
menos
mais
close
Cor dos acordes:

Cor da letra:

 

save
close
close
 
redimensionar