Cifras e Tablaturas
Yukon Blonde

Yukon Blonde

Brides Song

Cifras Cancelar Versão de Impressão
cifras

Yukon Blonde - Brides Song

fixar na tela  
Exibindo: vídeo-aula ver clipes redimensionar
  
Intro 

  Gm7    F         Cm7  D#maj7 Cm7  D#maj7  Dm       F   Gm7 
e|10---x-8-8--x---|3-x--6-6--x-3---|6-6-x---5-5-x---|1---3-3-x---3xxx| 
B|11---x-1010-x---|4-x--8-8--x-4---|8-8-x---6-6-x---|1---3-3-x---3xxx| 
G|10---x-1010-x---|3-x--7 7--x-5---|7-7-x---7-7-x---|2---3-3-x---3xxx| x4 
D|12---x-1010-x---|5-x--8-8--x-5---|8-8-x---7-7-x---|3---3-3-x---3xxx| 
A|10---x-8-8--x---|3-x--6-6--x-3---|6-6-x---5-5-x---|3---5-5-x---5xxx| 
E|----------------|----------------|----------------|1---3-3-x---3xxx| 

(Two palm mutes after the last Gm7 in the final two times this is played) 


Verse 


e|----------------|----------------|----------------|----------------| 
B|----------------|----------------|----------------|----------------| 
G|----12-10--12-10|---12-10--12-10-|---12-10--12-10-|---12-10--12-10-| 
D|---------12-----|--------12------|--------12------|--------12------| 
A|----------------|----------------|----------------|----------------| 
E|----------------|----------------|----------------|----------------| 
  Enough of me.... I'm into you.... And we've been.. all night 

e|----------------|----------------|----------------|----------------| 
B|----------------|----------------|----------------|----------------| 
G|----12-10--12-10|---12-10--12-10-|---12-10--12-10-|---12-10--12~---| 
D|---------12-----|--------12------|--------12------|--------12------| 
A|----------------|----------------|----------------|----------------| 
E|----------------|----------------|----------------|----------------| 
 My lips are...... I've said a..... So you should... bright light 
  
 (Lead guitar (not tabbed) starts playing) 

e|10---x-8-8--x---|3-x--6-6--x-3---|6-6-x---5-5-x---|1---3-3-x---3-xx| 
B|11---x-1010-x---|4-x--8-8--x-4---|8-8-x---6-6-x---|1---3-3-x---3-xx| 
G|10---x-1010-x---|3-x--7 7--x-5---|7-7-x---7-7-x---|2---3-3-x---3-xx| x 2 
D|12---x-1010-x---|5-x--8-8--x-5---|8-8-x---7-7-x---|3---3-3-x---3-xx| 
A|10---x-8-8--x---|3-x--6-6--x-3---|6-6-x---5-5-x---|3---5-5-x---5-xx| 
E|----------------|----------------|----------------|1---3-3-x---3-xx| 


e|----------------|----------------|----------------|----------------| 
B|----------------|----------------|----------------|----------------| 
G|----12-10--12-10|---12-10--12-10-|---12-10--12-10-|---12-10--12-10-| 
D|---------12-----|--------12------|--------12------|--------12------| 
A|----------------|----------------|----------------|----------------| 
E|----------------|----------------|----------------|----------------| 
 The coffee's cold, the silver's old, And the wait is all night 


e|----------------|----------------|----------------|----------------| 
B|----------------|----------------|----------------|----------------| 
G|----12-10--12-10|---12-10--12-10-|---12-10--12-10-|---12-10--12~---| 
D|---------12-----|--------12------|--------12------|--------12------| 
A|----------------|----------------|----------------|----------------| 
E|----------------|----------------|----------------|----------------| 
 You stare at me.. you say a ton... but the words... fit right 

 (Lead guitar (not tabbed) continues playing) 

e|10---x-8-8--x---|3-x--6-6--x-3---|6-6-x---5-5-x---|1---3-3-x---3-xx| 
B|11---x-1010-x---|4-x--8-8--x-4---|8-8-x---6-6-x---|1---3-3-x---3-xx| 
G|10---x-1010-x---|3-x--7 7--x-5---|7-7-x---7-7-x---|2---3-3-x---3-xx| x 2 
D|12---x-1010-x---|5-x--8-8--x-5---|8-8-x---7-7-x---|3---3-3-x---3-xx| 
A|10---x-8-8--x---|3-x--6-6--x-3---|6-6-x---5-5-x---|3---5-5-x---5-xx| 
E|----------------|----------------|----------------|1---3-3-x---3-xx| 


Chorus 
  
(partial barre chords) 


e|----------------|----------------|----------------|----------------| 
B|4-4-4-4-4-4-4-4-|4-4-4-4-4-4-4-4-|3-3-3-3-3-3-3-3-|--3-3-3-3-3-3-3-| 
G|5-5-5-5-5-5-5-5-|5-5-5-5-5-5-5-5-|3-3-3-3-3-3-3-3-|--3-3-3-3-3-3-3-| 
D|5-5-5-5-5-5-5-5-|5-5-5-5-5-5-5-5-|3-3-3-3-3-3-3-3-|--5-5-5-5-5-5-5-| 
A|3-3-3-3-3-3-3-3-|3-3-3-3-3-3-3-3-|----------------|--5-5-5-5-5-5-5-| 
E|----------------|----------------|----------------|----------------| 
 You ought to know ..... That we'd wait out in the sun darling...... 


e|----------------|----------------|----------------|----------------| 
B|4-4-4-4-4-4-4-4-|4-4-4-4-4-4-4-4-|3-3-3-3-3-3-3-3-|--1-1-1-1-1-1-1-| 
G|5-5-5-5-5-5-5-5-|5-5-5-5-5-5-5-5-|3-3-3-3-3-3-3-3-|--2-2-2-2-2-2-2-| 
D|5-5-5-5-5-5-5-5-|5-5-5-5-5-5-5-5-|5-5-5-5-5-5-5-5-|--3-3-3-3-3-3-3-| 
A|3-3-3-3-3-3-3-3-|3-3-3-3-3-3-3-3-|5-5-5-5-5-5-5-5-|--3-3-3-3-3-3-3-| 
E|----------------|----------------|----------------|----------------| 
 Oh.. You've got a heart that ..... waste........ anyone 
  

e|----------------|----------------|----------------|----------------| 
B|4-4-4-4-4-4-4-4-|4-4-4-4-4-4-4-4-|3-3-3-3-3-3-3-3-|--3-3-3-3-3-3-3-| 
G|5-5-5-5-5-5-5-5-|5-5-5-5-5-5-5-5-|3-3-3-3-3-3-3-3-|--3-3-3-3-3-3-3-| 
D|5-5-5-5-5-5-5-5-|5-5-5-5-5-5-5-5-|3-3-3-3-3-3-3-3-|--5-5-5-5-5-5-5-| 
A|3-3-3-3-3-3-3-3-|3-3-3-3-3-3-3-3-|----------------|--5-5-5-5-5-5-5-| 
E|----------------|----------------|----------------|----------------| 
 And you ought to know that you are so............ cold 


e|----------------|----------------|6-------6-------|6~----8-----8-8-| 
B|4-4-4-4-4-4-4-4-|4-4-4-4-4-4-4-4-|8-------8-------|8~----10----1010| 
G|5-5-5-5-5-5-5-5-|5-5-5-5-5-5-5-5-|7-------7-------|7~----10----1010| 
D|5-5-5-5-5-5-5-5-|5-5-5-5-5-5-5-5-|8-------8-------|8~----10----1010| 
A|3-3-3-3-3-3-3-3-|3-3-3-3-3-3-3-3-|6-------6-------|6~----8-----8-8-| 
E|----------------|----------------|----------------|----------------| 
         Into the dark we will ... go 

(Back to the intro here, with a lead guitar part coming in soon) 

e|10---x-8-8--x---|3-x--6-6--x-3---|6-6-x---5-5-x---|1---3-3-x---3-xx| 
B|11---x-1010-x---|4-x--8-8--x-4---|8-8-x---6-6-x---|1---3-3-x---3-xx| 
G|10---x-1010-x---|3-x--7 7--x-5---|7-7-x---7-7-x---|2---3-3-x---3-xx| 
D|12---x-1010-x---|5-x--8-8--x-5---|8-8-x---7-7-x---|3---3-3-x---3-xx| 
A|10---x-8-8--x---|3-x--6-6--x-3---|6-6-x---5-5-x---|3---5-5-x---5-xx| 
E|----------------|----------------|----------------|1---3-3-x---3-xx| 

(Lead guitar (not tabbed) starts playing) 

e|10---x-8-8--x---|3-x--6-6--x-3---|6-6-x---5-5-x---|1---3-3-x---3-xx| 
B|11---x-1010-x---|4-x--8-8--x-4---|8-8-x---6-6-x---|1---3-3-x---3-xx| 
G|10---x-1010-x---|3-x--7 7--x-5---|7-7-x---7-7-x---|2---3-3-x---3-xx| 
D|12---x-1010-x---|5-x--8-8--x-5---|8-8-x---7-7-x---|3---3-3-x---3-xx| 
A|10---x-8-8--x---|3-x--6-6--x-3---|6-6-x---5-5-x---|3---5-5-x---5-xx| 
E|----------------|----------------|----------------|1---3-3-x---3-xx| 


e|10---x-8-8--x---|3-x--6-6--x-3---|6-6-x---5-5-x---|1---3-3-x---3-xx| 
B|11---x-1010-x---|4-x--8-8--x-4---|8-8-x---6-6-x---|1---3-3-x---3-xx| 
G|10---x-1010-x---|3-x--7 7--x-5---|7-7-x---7-7-x---|2---3-3-x---3-xx| 
D|12---x-1010-x---|5-x--8-8--x-5---|8-8-x---7-7-x---|3---3-3-x---3-xx| 
A|10---x-8-8--x---|3-x--6-6--x-3---|6-6-x---5-5-x---|3---5-5-x---5-xx| 
E|----------------|----------------|----------------|1---3-3-x---3-xx| 
 Your cold clean eyes 


e|10---x-8-8--x---|3-x--6-6--x-3---|6-6-x---5-5-x---|1---3-3-x---3-xx| 
B|11---x-1010-x---|4-x--8-8--x-4---|8-8-x---6-6-x---|1---3-3-x---3-xx| 
G|10---x-1010-x---|3-x--7 7--x-5---|7-7-x---7-7-x---|2---3-3-x---3-xx| 
D|12---x-1010-x---|5-x--8-8--x-5---|8-8-x---7-7-x---|3---3-3-x---3-xx| 
A|10---x-8-8--x---|3-x--6-6--x-3---|6-6-x---5-5-x---|3---5-5-x---5-xx| 
E|----------------|----------------|----------------|1---3-3-x---3-xx| 
 You could scream your heart out 


Chorus 


e|----------------|----------------|----------------|----------------| 
B|4-4-4-4-4-4-4-4-|4-4-4-4-4-4-4-4-|3-3-3-3-3-3-3-3-|--3-3-3-3-3-3-3-| 
G|5-5-5-5-5-5-5-5-|5-5-5-5-5-5-5-5-|3-3-3-3-3-3-3-3-|--3-3-3-3-3-3-3-| 
D|5-5-5-5-5-5-5-5-|5-5-5-5-5-5-5-5-|3-3-3-3-3-3-3-3-|--5-5-5-5-5-5-5-| 
A|3-3-3-3-3-3-3-3-|3-3-3-3-3-3-3-3-|----------------|--5-5-5-5-5-5-5-| 
E|----------------|----------------|----------------|----------------| 
  You ought to know ..... That we'd wait out in the sun darling...... 


e|----------------|----------------|----------------|----------------| 
B|4-4-4-4-4-4-4-4-|4-4-4-4-4-4-4-4-|3-3-3-3-3-3-3-3-|--1-1-1-1-1-1-1-| 
G|5-5-5-5-5-5-5-5-|5-5-5-5-5-5-5-5-|3-3-3-3-3-3-3-3-|--2-2-2-2-2-2-2-| 
D|5-5-5-5-5-5-5-5-|5-5-5-5-5-5-5-5-|5-5-5-5-5-5-5-5-|--3-3-3-3-3-3-3-| 
A|3-3-3-3-3-3-3-3-|3-3-3-3-3-3-3-3-|5-5-5-5-5-5-5-5-|--3-3-3-3-3-3-3-| 
E|----------------|----------------|----------------|----------------| 
 Oh.. You've got a heart that ..... waste........ anyone 
  

e|----------------|----------------|----------------|----------------| 
B|4-4-4-4-4-4-4-4-|4-4-4-4-4-4-4-4-|3-3-3-3-3-3-3-3-|--3-3-3-3-3-3-3-| 
G|5-5-5-5-5-5-5-5-|5-5-5-5-5-5-5-5-|3-3-3-3-3-3-3-3-|--3-3-3-3-3-3-3-| 
D|5-5-5-5-5-5-5-5-|5-5-5-5-5-5-5-5-|3-3-3-3-3-3-3-3-|--5-5-5-5-5-5-5-| 
A|3-3-3-3-3-3-3-3-|3-3-3-3-3-3-3-3-|----------------|--5-5-5-5-5-5-5-| 
E|----------------|----------------|----------------|----------------| 
 And you ought to know that you are so............ cold 


e|----------------|----------------|6-------6-------|6~----8-----8-8-| 
B|4-4-4-4-4-4-4-4-|4-4-4-4-4-4-4-4-|8-------8-------|8~----10----1010| 
G|5-5-5-5-5-5-5-5-|5-5-5-5-5-5-5-5-|7-------7-------|7~----10----1010| 
D|5-5-5-5-5-5-5-5-|5-5-5-5-5-5-5-5-|8-------8-------|8~----10----1010| 
A|3-3-3-3-3-3-3-3-|3-3-3-3-3-3-3-3-|6-------6-------|6~----8-----8-8-| 
E|----------------|----------------|----------------|----------------| 
         Into the dark we will ... go 


 Outro/Instrumental 

 The first bit is a bass part, but you can play it before the lead kicks in. The chords are A# and eventually 
 Cm, if you'd like strum them instead. (If you actually have a bass player, play it one octave higher, this is 
 tabbed for guitar!) 
 The bass eventually alternates between 1 and 3 on the A string, if you'd prefer to play that part instead of 
 the lead guitar. 

e|----------------|----------------|----------------|----------------| 
B|----------------|----------------|----------------|----------------|  
G|----------------|----------------|----------------|----------------| 
D|----------------|----------------|----------------|----------------| 
A|1-1-1-1-1-1-1-1-|1-1-1-1-1-1-1-1-|1-1-1-1-1-1-1-1-|1-1-1-1-1-1-1-1-| 
E|----------------|----------------|----------------|----------------| 

e|----------------|----------------|----------------|----------------| 
B|----------------|----------------|----------------|----------------|  
G|----------------|----------------|----------------|------------3-5-|(The last note is actually on the first 
D|----------------|----------------|----------------|--------3-5-----| beat of the next measure, but I left it 
A|1-1-1-1-1-1-1-1-|1-1-1-1-1-1-1-1-|1-1-1-1-1-1-1-1-|1-1-1-1---------| here to avoid confusion) 
E|----------------|----------------|----------------|----------------| 


Both lead and rhythm guitar are playing these leads. The rhythm guitar buts in and plays the last bit 
that's marked as bass right now.  

Because both guitars playing together to make the final sound, just playing the lead is a bit dull. added a 
few notes to make it sound fuller and more interesting. It works very well with the song, and is probably a 
hybrid of the two parts (I didn't bother tabbing the rhythm guitar) 


e|----8---------10|------8---------|----8---------10|------8---------| 
B|------------8---|----------8---8-|------------8---|----------8---8-| 
G|----------8-----|----8-------8---|----------8-----|----8-------8---| 
D|10------10------|--10------------|10------10------|--10------------| 
A|----------------|----------------|----------------|----------------| 
E|----------------|----------------|----------------|----------------| 

e|----6---------8-|------6---------|----6---------8-|------6---------| 
B|------------6---|----------6---6-|------------6---|----------6---6-| 
G|----------7-----|----7-------7---|----------7-----|----7-------7---| 
D|8-------8-------|--8-------------|8-------8-------|--8-------------| 
A|----------------|----------------|----------------|----------------| 
E|----------------|----------------|----------------|----------------| 

e|----8---------10|------8---------|----8---------10|------8---------| 
B|------------8---|----------8---8-|------------8---|----------8---8-| 
G|----------8-----|----8-------8---|----------8-----|----8-------8---| 
D|10------10------|--10------------|10------10------|--10------------| 
A|----------------|----------------|----------------|----------------| 
E|----------------|----------------|----------------|----------------| 

e|----6---------8-|------6---------|----6---------8-|------6---------| 
B|------------6---|----------6---6-|------------6---|----------6---6-| 
G|----------7-----|----7-------7---|----------7-----|----7-------7---| 
D|8-------8-------|--8-------------|8-------8-------|--8-------------| 
A|----------------|----------------|----------------|----------------| 
E|----------------|----------------|----------------|----------------| 

e|----8---------10|------8---------|----8---------10|------8---------| 
B|------------8---|----------8---8-|------------8---|----------8---8-| 
G|----------8-----|----8-------8---|----------8-----|----8-------8---| 
D|10------10------|--10------------|10------10------|--10------------| 
A|----------------|----------------|----------------|----------------| 
E|----------------|----------------|----------------|----------------| 

e|----6---------8-|------6---------|----6---------8-|------6---------| 
B|------------6---|----------6---6-|------------6---|----------6---6-| 
G|----------7-----|----7-------7---|----------7-----|----7-------7---| 
D|8-------8-------|--8-------------|8-------8-------|--8-------------| 
A|----------------|----------------|----------------|----------------| 
E|----------------|----------------|----------------|----------------| 

(Synth part for guitar) 

e|------------8---|------------8---|------------8---|------------8---| 
B|--------8-------|--------8-------|--------8-------|--------8-------| 
G|----8-----------|----8-----------|----8-----------|----8-----------| 
D|10--------------|10--------------|10--------------|10--------------| 
A|----------------|----------------|----------------|----------------| 
E|----------------|----------------|----------------|----------------| 

e|------------6---|------------6---|------------6---|------------6---| 
B|--------6-------|--------6-------|--------6-------|--------6-------| 
G|----7-----------|----7-----------|----7-----------|----7-----------| 
D|8---------------|8---------------|8---------------|8---------------| 
A|----------------|----------------|----------------|----------------| 
E|----------------|----------------|----------------|----------------| 


Chords  

(with distortion) 

(The power chords are tabbed. You can also play the barre chords displayed above) 

  Cm                                A#                  Gm 
e|----------------|----------------|----------------|----------------| 
B|----------------|----------------|----------------|----------------| 
G|5-5-5-5-5-5-5-5-|5-5-5-5-5-5-5-5-|3-------3-------|3---------------| 
D|5-5-5-5-5-5-5-5-|5-5-5-5-5-5-5-5-|3-------3-------|3---5-5----5--5-| 
A|3-3-3-3-3-3-3-3-|3-3-3-3-3-3-3-3-|1-------1-------|1---5-5----5--5-| 
E|----------------|----------------|----------------|----3-3----3--3-| 

  Cm                                Gm                   F 
e|----------------|----------------|----------------|----------------| 
B|----------------|----------------|----------------|----------------| 
G|5-5-5-5-5-5-5-5-|5-5-5-5-5-5-5-5-|12------12------|12--1010---10-10| 
D|5-5-5-5-5-5-5-5-|5-5-5-5-5-5-5-5-|12------12------|12--1010---10-10| 
A|3-3-3-3-3-3-3-3-|3-3-3-3-3-3-3-3-|10------10------|10--8-8----8--8-| 
E|----------------|----------------|----------------|----------------| 

  Cm                                A#                  Gm 
e|----------------|----------------|----------------|----------------| 
B|----------------|----------------|----------------|----------------| 
G|5-5-5-5-5-5-5-5-|5-5-5-5-5-5-5-5-|3-------3-------|3---------------| 
D|5-5-5-5-5-5-5-5-|5-5-5-5-5-5-5-5-|3-------3-------|3---5-5----5--5-| 
A|3-3-3-3-3-3-3-3-|3-3-3-3-3-3-3-3-|1-------1-------|1---5-5----5--5-| 
E|----------------|----------------|----------------|----3-3----3--3-| 

  Cm                                Gm7     F        Cm7     D#maj7 
e|----------------|----------------|10------8-------|3-------6-------| 
B|----------------|----------------|11------10------|4-------8-------| 
G|5-5-5-5-5-5-5-5-|5-5-5-5-5-5-5-5-|10------10------|3-------7-------| 
D|5-5-5-5-5-5-5-5-|5-5-5-5-5-5-5-5-|12------10------|5-------8-------| 
A|3-3-3-3-3-3-3-3-|3-3-3-3-3-3-3-3-|10------8-------|3-------6-------| 
E|----------------|----------------|----------------|----------------| 




******************* 
|x     Dead note 
****************** 
  

cifra enviadasem correções
enviado porenviada por:tercmoraes
top 5 | yukon blonde
top rock'n roll
Outras músicas do artista letras do(a) Yukon Blonde
Top cifras »Top artistas »
Petaxxon Comunicação Online
Cifras.com.br - Melhor e mais completo site de cifras e tablaturas do Brasil
Mais de 1 milhão de acordes de músicas cadastradas desde 2003
As informações contidas no nosso site são colaborações de seus usuários e podem conter erros, sendo assim, não nos responsabilizamos sobre nenhuma destas.
close
menos
mais
close
Cor dos acordes:

Cor da letra:

 

save
close
close
 
redimensionar