Cifras e Tablaturas
Zé Neto e Cristiano

Zé Neto e Cristiano

Jogado Às Traças

Cifras Cancelar Versão de Impressão
cifras

Zé Neto e Cristiano - Jogado Às Traças

fixar na tela  
Exibindo: vídeo-aula ver clipes redimensionar
  B9  C#9  D#m 

E|-------------------------------------------| 
B|--------4-2p4h2------------6-4p6h4---------| 
G|--4---4---------4----6---6---------6---6/8-| 
D|----4-------------4----6-------------6-----| 
A|-------------------------------------------| 
E|-------------------------------------------| 

E|------------------| 
B|------------------| 
G|----4-6-4-3-------| 
D|--8---------4-----| 
A|------------------| 
E|------------------| 

E|-------------------------------------------| 
B|--------4-2p4h2------------6-4p6h4---------| 
G|--4---4---------4----6---6---------6---6/8-| 
D|----4-------------4----6-------------6-----| 
A|-------------------------------------------| 
E|-------------------------------------------| 

E|--------------------| 
B|--------------------| 
G|--------------------| 
D|--6p8h6-------------| 
A|--------9-8-6-------| 
E|--------------------| 

B9            C#9 
Meu orgulho caiu 
               D#m 
Quando subiu o álcool 
Ai deu ruim pra mim 

B9        C#9 
E pra piorar 
               D#m 
Tá tocando um modão de arrastar 
O chifre no asfalto 
B9                 C#9 
Tô tentando te esquecer 
          D#m 
Mas meu coração não entende 
De novo eu fechando esse bar 
B9          C#9 
Afogando a saudade 
        D#m 
Num querosene 

                   B9 
Vou beijando esse copo 
                 C#9 
Abraçando as garrafas 
              D#m 
Solidão é companheira 
Nesse risca faca 
                   B9 
Enquanto "cê" não volta 
                   C#9 
Eu tô largado as traças 
             D#m 
Maldito sentimento 
Que nunca se acaba 

B9   C#9 
Oooo oooo 
            D#m 
A falta de você 
Bebida não ameniza 
B9    C#9 
Oooo oooo 
              D#m 
Tô tentando apagar 
Fogo com gasolina 
  

cifra enviadasem correções
enviado porenviada por:tarikike
top 5 | zé neto e cristiano
top sertanejo
Outras músicas do artista letras do(a) Zé Neto e Cristiano
Top cifras »Top artistas »
Petaxxon Comunicação Online
Cifras.com.br - Melhor e mais completo site de cifras e tablaturas do Brasil
Mais de 1 milhão de acordes de músicas cadastradas desde 2003
As informações contidas no nosso site são colaborações de seus usuários e podem conter erros, sendo assim, não nos responsabilizamos sobre nenhuma destas.
close
menos
mais
close
Cor dos acordes:

Cor da letra:

 

save
close
close
 
redimensionar